ISO-10303-21;
HEADER;
FILE_DESCRIPTION (( 'STEP AP214' ),
    '1' );
FILE_NAME ('Hositrad_KF10R-V.STEP',
    '2017-05-26T08:06:09',
    ( 'Gebruiker' ),
    ( '' ),
    'SwSTEP 2.0',
    'SolidWorks 2017',
    '' );
FILE_SCHEMA (( 'AUTOMOTIVE_DESIGN' ));
ENDSEC;

DATA;
#1 = TOROIDAL_SURFACE ( 'NONE', #97, 9.999999999999998200, 2.500000000000000000 ) ;
#2 = COLOUR_RGB ( '',0.0000000000000000000, 0.0000000000000000000, 0.0000000000000000000 ) ;
#3 = EDGE_CURVE ( 'NONE', #174, #175, #127, .T. ) ;
#4 = CARTESIAN_POINT ( 'NONE',  ( 9.184850993605146000E-016, -3.061616997868382600E-016, -7.499999999999998200 ) ) ;
#5 = FILL_AREA_STYLE ('',( #136 ) ) ;
#6 = CARTESIAN_POINT ( 'NONE',  ( 1.224646799147353100E-015, 0.0000000000000000000, -9.999999999999998200 ) ) ;
#7 = COLOUR_RGB ( '',0.0000000000000000000, 0.0000000000000000000, 0.0000000000000000000 ) ;
#8 = TOROIDAL_SURFACE ( 'NONE', #215, 9.999999999999998200, 2.500000000000000000 ) ;
#9 = ADVANCED_FACE ( 'NONE', ( #101 ), #218, .T. ) ;
#10 =( NAMED_UNIT ( * ) PLANE_ANGLE_UNIT ( ) SI_UNIT ( $, .RADIAN. ) );
#11 = DIRECTION ( 'NONE',  ( 0.0000000000000000000, 0.0000000000000000000, 1.000000000000000000 ) ) ;
#12 = PRESENTATION_STYLE_ASSIGNMENT (( #72 ) ) ;
#13 = SURFACE_STYLE_FILL_AREA ( #60 ) ;
#14 = UNCERTAINTY_MEASURE_WITH_UNIT (LENGTH_MEASURE( 1.000000000000000100E-005 ), #15, 'distance_accuracy_value', 'NONE');
#15 =( LENGTH_UNIT ( ) NAMED_UNIT ( * ) SI_UNIT ( .MILLI., .METRE. ) );
#16 = STYLED_ITEM ( 'NONE', ( #12 ), #44 ) ;
#17 = SHAPE_DEFINITION_REPRESENTATION ( #27, #44 ) ;
#18 =( NAMED_UNIT ( * ) PLANE_ANGLE_UNIT ( ) SI_UNIT ( $, .RADIAN. ) );
#19 = FILL_AREA_STYLE ('',( #159 ) ) ;
#20 = CIRCLE ( 'NONE', #50, 2.500000000000000400 ) ;
#21 = PRODUCT_CONTEXT ( 'NONE', #169, 'mechanical' ) ;
#22 = PRODUCT ( 'Hositrad_KF10R-V', 'Hositrad_KF10R-V', '', ( #21 ) ) ;
#23 = AXIS2_PLACEMENT_3D ( 'NONE', #54, #64, #26 ) ;
#24 =( GEOMETRIC_REPRESENTATION_CONTEXT ( 3 ) GLOBAL_UNCERTAINTY_ASSIGNED_CONTEXT ( ( #74 ) ) GLOBAL_UNIT_ASSIGNED_CONTEXT ( ( #138, #51, #137 ) ) REPRESENTATION_CONTEXT ( 'NONE', 'WORKASPACE' ) );
#25 = EDGE_CURVE ( 'NONE', #175, #174, #119, .T. ) ;
#26 = DIRECTION ( 'NONE',  ( 0.0000000000000000000, 0.0000000000000000000, 1.000000000000000000 ) ) ;
#27 = PRODUCT_DEFINITION_SHAPE ( 'NONE', 'NONE',  #68 ) ;
#28 = STYLED_ITEM ( 'NONE', ( #111 ), #33 ) ;
#29 = SURFACE_STYLE_FILL_AREA ( #19 ) ;
#30 = SURFACE_SIDE_STYLE ('',( #155 ) ) ;
#31 = CARTESIAN_POINT ( 'NONE',  ( 1.530808498934191100E-015, 0.0000000000000000000, -12.49999999999999800 ) ) ;
#32 = DIRECTION ( 'NONE',  ( -0.0000000000000000000, 1.000000000000000000, -0.0000000000000000000 ) ) ;
#33 = ADVANCED_FACE ( 'NONE', ( #173 ), #8, .T. ) ;
#34 = UNCERTAINTY_MEASURE_WITH_UNIT (LENGTH_MEASURE( 1.000000000000000100E-005 ), #165, 'distance_accuracy_value', 'NONE');
#35 = SURFACE_SIDE_STYLE ('',( #29 ) ) ;
#36 = SURFACE_STYLE_USAGE ( .BOTH. , #144 ) ;
#37 = SURFACE_STYLE_FILL_AREA ( #206 ) ;
#38 = STYLED_ITEM ( 'NONE', ( #49 ), #152 ) ;
#39 = CARTESIAN_POINT ( 'NONE',  ( 0.0000000000000000000, 0.0000000000000000000, 9.999999999999998200 ) ) ;
#40 = EDGE_CURVE ( 'NONE', #107, #216, #191, .T. ) ;
#41 = APPLICATION_PROTOCOL_DEFINITION ( 'draft international standard', 'automotive_design', 1998, #148 ) ;
#42 = PRESENTATION_STYLE_ASSIGNMENT (( #143 ) ) ;
#43 = CIRCLE ( 'NONE', #135, 2.500000000000000400 ) ;
#44 = ADVANCED_BREP_SHAPE_REPRESENTATION ( 'Hositrad_KF10R-V', ( #152, #128 ), #151 ) ;
#45 = COLOUR_RGB ( '',0.2509803921568627400, 0.2509803921568627400, 0.2509803921568627400 ) ;
#46 = PRESENTATION_STYLE_ASSIGNMENT (( #36 ) ) ;
#47 = MECHANICAL_DESIGN_GEOMETRIC_PRESENTATION_REPRESENTATION (  '', ( #104 ), #217 ) ;
#48 = CIRCLE ( 'NONE', #92, 2.500000000000000400 ) ;
#49 = PRESENTATION_STYLE_ASSIGNMENT (( #52 ) ) ;
#50 = AXIS2_PLACEMENT_3D ( 'NONE', #6, #98, #117 ) ;
#51 =( NAMED_UNIT ( * ) PLANE_ANGLE_UNIT ( ) SI_UNIT ( $, .RADIAN. ) );
#52 = SURFACE_STYLE_USAGE ( .BOTH. , #99 ) ;
#53 = SURFACE_STYLE_FILL_AREA ( #66 ) ;
#54 = CARTESIAN_POINT ( 'NONE',  ( 0.0000000000000000000, 0.0000000000000000000, 9.999999999999998200 ) ) ;
#55 =( LENGTH_UNIT ( ) NAMED_UNIT ( * ) SI_UNIT ( .MILLI., .METRE. ) );
#56 =( NAMED_UNIT ( * ) PLANE_ANGLE_UNIT ( ) SI_UNIT ( $, .RADIAN. ) );
#57 = DIRECTION ( 'NONE',  ( 0.0000000000000000000, 0.0000000000000000000, 1.000000000000000000 ) ) ;
#58 =( GEOMETRIC_REPRESENTATION_CONTEXT ( 3 ) GLOBAL_UNCERTAINTY_ASSIGNED_CONTEXT ( ( #14 ) ) GLOBAL_UNIT_ASSIGNED_CONTEXT ( ( #15, #210, #181 ) ) REPRESENTATION_CONTEXT ( 'NONE', 'WORKASPACE' ) );
#59 = EDGE_CURVE ( 'NONE', #174, #216, #85, .T. ) ;
#60 = FILL_AREA_STYLE ('',( #186 ) ) ;
#61 = AXIS2_PLACEMENT_3D ( 'NONE', #209, #195, #84 ) ;
#62 = MECHANICAL_DESIGN_GEOMETRIC_PRESENTATION_REPRESENTATION (  '', ( #28 ), #24 ) ;
#63 = TOROIDAL_SURFACE ( 'NONE', #61, 9.999999999999998200, 2.500000000000000000 ) ;
#64 = DIRECTION ( 'NONE',  ( -1.000000000000000000, 0.0000000000000000000, 0.0000000000000000000 ) ) ;
#65 = PRODUCT_RELATED_PRODUCT_CATEGORY ( 'part', '', ( #22 ) ) ;
#66 = FILL_AREA_STYLE ('',( #113 ) ) ;
#67 = MECHANICAL_DESIGN_GEOMETRIC_PRESENTATION_REPRESENTATION (  '', ( #16 ), #76 ) ;
#68 = PRODUCT_DEFINITION ( 'UNKNOWN', '', #70, #168 ) ;
#69 = FILL_AREA_STYLE ('',( #79 ) ) ;
#70 = PRODUCT_DEFINITION_FORMATION_WITH_SPECIFIED_SOURCE ( 'ANY', '', #22, .NOT_KNOWN. ) ;
#71 =( LENGTH_UNIT ( ) NAMED_UNIT ( * ) SI_UNIT ( .MILLI., .METRE. ) );
#72 = SURFACE_STYLE_USAGE ( .BOTH. , #188 ) ;
#73 = AXIS2_PLACEMENT_3D ( 'NONE', #176, #77, #203 ) ;
#74 = UNCERTAINTY_MEASURE_WITH_UNIT (LENGTH_MEASURE( 1.000000000000000100E-005 ), #138, 'distance_accuracy_value', 'NONE');
#75 = PRESENTATION_LAYER_ASSIGNMENT (  '', '', ( #38 ) ) ;
#76 =( GEOMETRIC_REPRESENTATION_CONTEXT ( 3 ) GLOBAL_UNCERTAINTY_ASSIGNED_CONTEXT ( ( #150 ) ) GLOBAL_UNIT_ASSIGNED_CONTEXT ( ( #198, #89, #214 ) ) REPRESENTATION_CONTEXT ( 'NONE', 'WORKASPACE' ) );
#77 = DIRECTION ( 'NONE',  ( -0.0000000000000000000, 1.000000000000000000, -0.0000000000000000000 ) ) ;
#78 = CARTESIAN_POINT ( 'NONE',  ( 0.0000000000000000000, -3.061616997868383100E-016, 0.0000000000000000000 ) ) ;
#79 = FILL_AREA_STYLE_COLOUR ( '', #149 ) ;
#80 = ORIENTED_EDGE ( 'NONE', *, *, #59, .T. ) ;
#81 = SURFACE_STYLE_USAGE ( .BOTH. , #30 ) ;
#82 = SURFACE_STYLE_USAGE ( .BOTH. , #193 ) ;
#83 = CARTESIAN_POINT ( 'NONE',  ( 0.0000000000000000000, 0.0000000000000000000, 12.49999999999999800 ) ) ;
#84 = DIRECTION ( 'NONE',  ( 0.0000000000000000000, 0.0000000000000000000, 1.000000000000000000 ) ) ;
#85 = CIRCLE ( 'NONE', #23, 2.500000000000000400 ) ;
#86 = DIRECTION ( 'NONE',  ( -0.0000000000000000000, 1.000000000000000000, -0.0000000000000000000 ) ) ;
#87 = DIRECTION ( 'NONE',  ( 1.000000000000000000, 0.0000000000000000000, 1.224646799147353200E-016 ) ) ;
#88 = PRESENTATION_LAYER_ASSIGNMENT (  '', '', ( #104 ) ) ;
#89 =( NAMED_UNIT ( * ) PLANE_ANGLE_UNIT ( ) SI_UNIT ( $, .RADIAN. ) );
#90 = EDGE_CURVE ( 'NONE', #216, #107, #134, .T. ) ;
#91 = STYLED_ITEM ( 'NONE', ( #46 ), #184 ) ;
#92 = AXIS2_PLACEMENT_3D ( 'NONE', #197, #87, #213 ) ;
#93 = DIRECTION ( 'NONE',  ( 0.0000000000000000000, 0.0000000000000000000, 1.000000000000000000 ) ) ;
#94 = DIRECTION ( 'NONE',  ( -0.0000000000000000000, 1.000000000000000000, -0.0000000000000000000 ) ) ;
#95 = STYLED_ITEM ( 'NONE', ( #122 ), #9 ) ;
#96 = DIRECTION ( 'NONE',  ( 0.0000000000000000000, 0.0000000000000000000, 1.000000000000000000 ) ) ;
#97 = AXIS2_PLACEMENT_3D ( 'NONE', #118, #86, #212 ) ;
#98 = DIRECTION ( 'NONE',  ( 1.000000000000000000, 0.0000000000000000000, 1.224646799147353200E-016 ) ) ;
#99 = SURFACE_SIDE_STYLE ('',( #37 ) ) ;
#100 = PRESENTATION_LAYER_ASSIGNMENT (  '', '', ( #91 ) ) ;
#101 = FACE_OUTER_BOUND ( 'NONE', #153, .T. ) ;
#102 = ORIENTED_EDGE ( 'NONE', *, *, #40, .T. ) ;
#103 = AXIS2_PLACEMENT_3D ( 'NONE', #78, #204, #93 ) ;
#104 = STYLED_ITEM ( 'NONE', ( #42 ), #166 ) ;
#105 = ORIENTED_EDGE ( 'NONE', *, *, #190, .F. ) ;
#106 = ORIENTED_EDGE ( 'NONE', *, *, #90, .T. ) ;
#107 = VERTEX_POINT ( 'NONE', #4 ) ;
#108 = ORIENTED_EDGE ( 'NONE', *, *, #25, .F. ) ;
#109 = CLOSED_SHELL ( 'NONE', ( #184, #33, #9, #166 ) ) ;
#110 = UNCERTAINTY_MEASURE_WITH_UNIT (LENGTH_MEASURE( 1.000000000000000100E-005 ), #116, 'distance_accuracy_value', 'NONE');
#111 = PRESENTATION_STYLE_ASSIGNMENT (( #82 ) ) ;
#112 = DIRECTION ( 'NONE',  ( -0.0000000000000000000, 1.000000000000000000, -0.0000000000000000000 ) ) ;
#113 = FILL_AREA_STYLE_COLOUR ( '', #45 ) ;
#114 = ORIENTED_EDGE ( 'NONE', *, *, #3, .F. ) ;
#115 = CARTESIAN_POINT ( 'NONE',  ( 0.0000000000000000000, 0.0000000000000000000, 0.0000000000000000000 ) ) ;
#116 =( LENGTH_UNIT ( ) NAMED_UNIT ( * ) SI_UNIT ( .MILLI., .METRE. ) );
#117 = DIRECTION ( 'NONE',  ( 1.224646799147352700E-016, 0.0000000000000000000, -1.000000000000000000 ) ) ;
#118 = CARTESIAN_POINT ( 'NONE',  ( 0.0000000000000000000, 0.0000000000000000000, 0.0000000000000000000 ) ) ;
#119 = CIRCLE ( 'NONE', #129, 12.49999999999999800 ) ;
#120 =( NAMED_UNIT ( * ) SI_UNIT ( $, .STERADIAN. ) SOLID_ANGLE_UNIT ( ) );
#121 = DIRECTION ( 'NONE',  ( 1.000000000000000000, 0.0000000000000000000, 0.0000000000000000000 ) ) ;
#122 = PRESENTATION_STYLE_ASSIGNMENT (( #81 ) ) ;
#123 = ORIENTED_EDGE ( 'NONE', *, *, #194, .T. ) ;
#124 = MECHANICAL_DESIGN_GEOMETRIC_PRESENTATION_REPRESENTATION (  '', ( #38 ), #58 ) ;
#125 = EDGE_LOOP ( 'NONE', ( #141, #157, #80, #189 ) ) ;
#126 = ORIENTED_EDGE ( 'NONE', *, *, #59, .F. ) ;
#127 = CIRCLE ( 'NONE', #171, 12.49999999999999800 ) ;
#128 = AXIS2_PLACEMENT_3D ( 'NONE', #196, #11, #121 ) ;
#129 = AXIS2_PLACEMENT_3D ( 'NONE', #179, #94, #180 ) ;
#130 =( GEOMETRIC_REPRESENTATION_CONTEXT ( 3 ) GLOBAL_UNCERTAINTY_ASSIGNED_CONTEXT ( ( #34 ) ) GLOBAL_UNIT_ASSIGNED_CONTEXT ( ( #165, #56, #183 ) ) REPRESENTATION_CONTEXT ( 'NONE', 'WORKASPACE' ) );
#131 = PRESENTATION_LAYER_ASSIGNMENT (  '', '', ( #16 ) ) ;
#132 = AXIS2_PLACEMENT_3D ( 'NONE', #208, #32, #139 ) ;
#133 = ORIENTED_EDGE ( 'NONE', *, *, #190, .T. ) ;
#134 = CIRCLE ( 'NONE', #73, 7.499999999999998200 ) ;
#135 = AXIS2_PLACEMENT_3D ( 'NONE', #39, #167, #57 ) ;
#136 = FILL_AREA_STYLE_COLOUR ( '', #200 ) ;
#137 =( NAMED_UNIT ( * ) SI_UNIT ( $, .STERADIAN. ) SOLID_ANGLE_UNIT ( ) );
#138 =( LENGTH_UNIT ( ) NAMED_UNIT ( * ) SI_UNIT ( .MILLI., .METRE. ) );
#139 = DIRECTION ( 'NONE',  ( 0.0000000000000000000, 0.0000000000000000000, 1.000000000000000000 ) ) ;
#140 = ORIENTED_EDGE ( 'NONE', *, *, #3, .T. ) ;
#141 = ORIENTED_EDGE ( 'NONE', *, *, #164, .F. ) ;
#142 = FACE_OUTER_BOUND ( 'NONE', #156, .T. ) ;
#143 = SURFACE_STYLE_USAGE ( .BOTH. , #35 ) ;
#144 = SURFACE_SIDE_STYLE ('',( #53 ) ) ;
#145 = CARTESIAN_POINT ( 'NONE',  ( 0.0000000000000000000, -3.061616997868382600E-016, 7.499999999999998200 ) ) ;
#146 = APPLICATION_PROTOCOL_DEFINITION ( 'draft international standard', 'automotive_design', 1998, #169 ) ;
#147 = ORIENTED_EDGE ( 'NONE', *, *, #90, .F. ) ;
#148 = APPLICATION_CONTEXT ( 'automotive_design' ) ;
#149 = COLOUR_RGB ( '',0.2509803921568627400, 0.2509803921568627400, 0.2509803921568627400 ) ;
#150 = UNCERTAINTY_MEASURE_WITH_UNIT (LENGTH_MEASURE( 1.000000000000000100E-005 ), #198, 'distance_accuracy_value', 'NONE');
#151 =( GEOMETRIC_REPRESENTATION_CONTEXT ( 3 ) GLOBAL_UNCERTAINTY_ASSIGNED_CONTEXT ( ( #162 ) ) GLOBAL_UNIT_ASSIGNED_CONTEXT ( ( #71, #10, #120 ) ) REPRESENTATION_CONTEXT ( 'NONE', 'WORKASPACE' ) );
#152 = MANIFOLD_SOLID_BREP ( 'Revolve1', #109 ) ;
#153 = EDGE_LOOP ( 'NONE', ( #114, #105, #106, #123 ) ) ;
#154 = PRESENTATION_LAYER_ASSIGNMENT (  '', '', ( #95 ) ) ;
#155 = SURFACE_STYLE_FILL_AREA ( #5 ) ;
#156 = EDGE_LOOP ( 'NONE', ( #108, #211, #102, #133 ) ) ;
#157 = ORIENTED_EDGE ( 'NONE', *, *, #25, .T. ) ;
#158 = EDGE_LOOP ( 'NONE', ( #126, #140, #201, #147 ) ) ;
#159 = FILL_AREA_STYLE_COLOUR ( '', #207 ) ;
#160 = DIRECTION ( 'NONE',  ( -0.0000000000000000000, 1.000000000000000000, -0.0000000000000000000 ) ) ;
#161 =( NAMED_UNIT ( * ) SI_UNIT ( $, .STERADIAN. ) SOLID_ANGLE_UNIT ( ) );
#162 = UNCERTAINTY_MEASURE_WITH_UNIT (LENGTH_MEASURE( 1.000000000000000100E-005 ), #71, 'distance_accuracy_value', 'NONE');
#163 =( NAMED_UNIT ( * ) PLANE_ANGLE_UNIT ( ) SI_UNIT ( $, .RADIAN. ) );
#164 = EDGE_CURVE ( 'NONE', #175, #107, #20, .T. ) ;
#165 =( LENGTH_UNIT ( ) NAMED_UNIT ( * ) SI_UNIT ( .MILLI., .METRE. ) );
#166 = ADVANCED_FACE ( 'NONE', ( #142 ), #63, .T. ) ;
#167 = DIRECTION ( 'NONE',  ( -1.000000000000000000, 0.0000000000000000000, 0.0000000000000000000 ) ) ;
#168 = PRODUCT_DEFINITION_CONTEXT ( 'detailed design', #148, 'design' ) ;
#169 = APPLICATION_CONTEXT ( 'automotive_design' ) ;
#170 = SURFACE_STYLE_FILL_AREA ( #69 ) ;
#171 = AXIS2_PLACEMENT_3D ( 'NONE', #115, #112, #177 ) ;
#172 = FACE_OUTER_BOUND ( 'NONE', #125, .T. ) ;
#173 = FACE_OUTER_BOUND ( 'NONE', #158, .T. ) ;
#174 = VERTEX_POINT ( 'NONE', #83 ) ;
#175 = VERTEX_POINT ( 'NONE', #31 ) ;
#176 = CARTESIAN_POINT ( 'NONE',  ( 0.0000000000000000000, -3.061616997868383100E-016, 0.0000000000000000000 ) ) ;
#177 = DIRECTION ( 'NONE',  ( 0.0000000000000000000, 0.0000000000000000000, 1.000000000000000000 ) ) ;
#178 = MECHANICAL_DESIGN_GEOMETRIC_PRESENTATION_REPRESENTATION (  '', ( #91 ), #130 ) ;
#179 = CARTESIAN_POINT ( 'NONE',  ( 0.0000000000000000000, 0.0000000000000000000, 0.0000000000000000000 ) ) ;
#180 = DIRECTION ( 'NONE',  ( 0.0000000000000000000, 0.0000000000000000000, 1.000000000000000000 ) ) ;
#181 =( NAMED_UNIT ( * ) SI_UNIT ( $, .STERADIAN. ) SOLID_ANGLE_UNIT ( ) );
#182 =( NAMED_UNIT ( * ) SI_UNIT ( $, .STERADIAN. ) SOLID_ANGLE_UNIT ( ) );
#183 =( NAMED_UNIT ( * ) SI_UNIT ( $, .STERADIAN. ) SOLID_ANGLE_UNIT ( ) );
#184 = ADVANCED_FACE ( 'NONE', ( #172 ), #1, .T. ) ;
#185 = MECHANICAL_DESIGN_GEOMETRIC_PRESENTATION_REPRESENTATION (  '', ( #95 ), #202 ) ;
#186 = FILL_AREA_STYLE_COLOUR ( '', #7 ) ;
#187 = PRESENTATION_LAYER_ASSIGNMENT (  '', '', ( #28 ) ) ;
#188 = SURFACE_SIDE_STYLE ('',( #13 ) ) ;
#189 = ORIENTED_EDGE ( 'NONE', *, *, #40, .F. ) ;
#190 = EDGE_CURVE ( 'NONE', #216, #174, #43, .T. ) ;
#191 = CIRCLE ( 'NONE', #103, 7.499999999999998200 ) ;
#192 = CARTESIAN_POINT ( 'NONE',  ( 0.0000000000000000000, 0.0000000000000000000, 0.0000000000000000000 ) ) ;
#193 = SURFACE_SIDE_STYLE ('',( #170 ) ) ;
#194 = EDGE_CURVE ( 'NONE', #107, #175, #48, .T. ) ;
#195 = DIRECTION ( 'NONE',  ( -0.0000000000000000000, 1.000000000000000000, -0.0000000000000000000 ) ) ;
#196 = CARTESIAN_POINT ( 'NONE',  ( 0.0000000000000000000, 0.0000000000000000000, 0.0000000000000000000 ) ) ;
#197 = CARTESIAN_POINT ( 'NONE',  ( 1.224646799147353100E-015, 0.0000000000000000000, -9.999999999999998200 ) ) ;
#198 =( LENGTH_UNIT ( ) NAMED_UNIT ( * ) SI_UNIT ( .MILLI., .METRE. ) );
#199 = UNCERTAINTY_MEASURE_WITH_UNIT (LENGTH_MEASURE( 1.000000000000000100E-005 ), #55, 'distance_accuracy_value', 'NONE');
#200 = COLOUR_RGB ( '',0.2509803921568627400, 0.2509803921568627400, 0.2509803921568627400 ) ;
#201 = ORIENTED_EDGE ( 'NONE', *, *, #164, .T. ) ;
#202 =( GEOMETRIC_REPRESENTATION_CONTEXT ( 3 ) GLOBAL_UNCERTAINTY_ASSIGNED_CONTEXT ( ( #110 ) ) GLOBAL_UNIT_ASSIGNED_CONTEXT ( ( #116, #18, #161 ) ) REPRESENTATION_CONTEXT ( 'NONE', 'WORKASPACE' ) );
#203 = DIRECTION ( 'NONE',  ( 0.0000000000000000000, 0.0000000000000000000, 1.000000000000000000 ) ) ;
#204 = DIRECTION ( 'NONE',  ( -0.0000000000000000000, 1.000000000000000000, -0.0000000000000000000 ) ) ;
#205 = FILL_AREA_STYLE_COLOUR ( '', #2 ) ;
#206 = FILL_AREA_STYLE ('',( #205 ) ) ;
#207 = COLOUR_RGB ( '',0.2509803921568627400, 0.2509803921568627400, 0.2509803921568627400 ) ;
#208 = CARTESIAN_POINT ( 'NONE',  ( 0.0000000000000000000, 0.0000000000000000000, 0.0000000000000000000 ) ) ;
#209 = CARTESIAN_POINT ( 'NONE',  ( 0.0000000000000000000, 0.0000000000000000000, 0.0000000000000000000 ) ) ;
#210 =( NAMED_UNIT ( * ) PLANE_ANGLE_UNIT ( ) SI_UNIT ( $, .RADIAN. ) );
#211 = ORIENTED_EDGE ( 'NONE', *, *, #194, .F. ) ;
#212 = DIRECTION ( 'NONE',  ( 0.0000000000000000000, 0.0000000000000000000, 1.000000000000000000 ) ) ;
#213 = DIRECTION ( 'NONE',  ( 1.224646799147352700E-016, 0.0000000000000000000, -1.000000000000000000 ) ) ;
#214 =( NAMED_UNIT ( * ) SI_UNIT ( $, .STERADIAN. ) SOLID_ANGLE_UNIT ( ) );
#215 = AXIS2_PLACEMENT_3D ( 'NONE', #192, #160, #96 ) ;
#216 = VERTEX_POINT ( 'NONE', #145 ) ;
#217 =( GEOMETRIC_REPRESENTATION_CONTEXT ( 3 ) GLOBAL_UNCERTAINTY_ASSIGNED_CONTEXT ( ( #199 ) ) GLOBAL_UNIT_ASSIGNED_CONTEXT ( ( #55, #163, #182 ) ) REPRESENTATION_CONTEXT ( 'NONE', 'WORKASPACE' ) );
#218 = TOROIDAL_SURFACE ( 'NONE', #132, 9.999999999999998200, 2.500000000000000000 ) ;
ENDSEC;
END-ISO-10303-21;
