ISO-10303-21;
HEADER;
FILE_DESCRIPTION (( 'STEP AP214' ),
    '1' );
FILE_NAME ('Hositrad_KF16R-V.STEP',
    '2017-05-26T08:06:39',
    ( 'Gebruiker' ),
    ( '' ),
    'SwSTEP 2.0',
    'SolidWorks 2017',
    '' );
FILE_SCHEMA (( 'AUTOMOTIVE_DESIGN' ));
ENDSEC;

DATA;
#1 = DIRECTION ( 'NONE',  ( 1.000000000000000000, 0.0000000000000000000, 1.224646799147353200E-016 ) ) ;
#2 = EDGE_CURVE ( 'NONE', #213, #100, #169, .T. ) ;
#3 = SURFACE_STYLE_FILL_AREA ( #56 ) ;
#4 =( LENGTH_UNIT ( ) NAMED_UNIT ( * ) SI_UNIT ( .MILLI., .METRE. ) );
#5 = DIRECTION ( 'NONE',  ( -0.0000000000000000000, 1.000000000000000000, -0.0000000000000000000 ) ) ;
#6 = ORIENTED_EDGE ( 'NONE', *, *, #12, .T. ) ;
#7 = SURFACE_STYLE_USAGE ( .BOTH. , #94 ) ;
#8 = MECHANICAL_DESIGN_GEOMETRIC_PRESENTATION_REPRESENTATION (  '', ( #143 ), #196 ) ;
#9 = CARTESIAN_POINT ( 'NONE',  ( 0.0000000000000000000, 0.0000000000000000000, 0.0000000000000000000 ) ) ;
#10 = SURFACE_STYLE_FILL_AREA ( #148 ) ;
#11 = SURFACE_STYLE_FILL_AREA ( #69 ) ;
#12 = EDGE_CURVE ( 'NONE', #163, #100, #49, .T. ) ;
#13 = DIRECTION ( 'NONE',  ( 0.0000000000000000000, 0.0000000000000000000, 1.000000000000000000 ) ) ;
#14 = PRESENTATION_STYLE_ASSIGNMENT (( #108 ) ) ;
#15 = DIRECTION ( 'NONE',  ( 1.224646799147353500E-016, 0.0000000000000000000, -1.000000000000000000 ) ) ;
#16 = SHAPE_DEFINITION_REPRESENTATION ( #216, #167 ) ;
#17 = CARTESIAN_POINT ( 'NONE',  ( 0.0000000000000000000, 0.0000000000000000000, 0.0000000000000000000 ) ) ;
#18 = CARTESIAN_POINT ( 'NONE',  ( 0.0000000000000000000, -3.061616997868383100E-016, 0.0000000000000000000 ) ) ;
#19 = CARTESIAN_POINT ( 'NONE',  ( 0.0000000000000000000, 0.0000000000000000000, 11.49999999999999600 ) ) ;
#20 = UNCERTAINTY_MEASURE_WITH_UNIT (LENGTH_MEASURE( 1.000000000000000100E-005 ), #138, 'distance_accuracy_value', 'NONE');
#21 = AXIS2_PLACEMENT_3D ( 'NONE', #19, #154, #206 ) ;
#22 =( NAMED_UNIT ( * ) PLANE_ANGLE_UNIT ( ) SI_UNIT ( $, .RADIAN. ) );
#23 = AXIS2_PLACEMENT_3D ( 'NONE', #18, #52, #174 ) ;
#24 = FACE_OUTER_BOUND ( 'NONE', #114, .T. ) ;
#25 = SURFACE_STYLE_FILL_AREA ( #104 ) ;
#26 = COLOUR_RGB ( '',0.2509803921568627400, 0.2509803921568627400, 0.2509803921568627400 ) ;
#27 = PRODUCT_RELATED_PRODUCT_CATEGORY ( 'part', '', ( #35 ) ) ;
#28 =( GEOMETRIC_REPRESENTATION_CONTEXT ( 3 ) GLOBAL_UNCERTAINTY_ASSIGNED_CONTEXT ( ( #36 ) ) GLOBAL_UNIT_ASSIGNED_CONTEXT ( ( #129, #118, #98 ) ) REPRESENTATION_CONTEXT ( 'NONE', 'WORKASPACE' ) );
#29 = EDGE_CURVE ( 'NONE', #110, #213, #182, .T. ) ;
#30 = PRESENTATION_STYLE_ASSIGNMENT (( #47 ) ) ;
#31 = SURFACE_STYLE_FILL_AREA ( #107 ) ;
#32 = FILL_AREA_STYLE_COLOUR ( '', #158 ) ;
#33 =( NAMED_UNIT ( * ) SI_UNIT ( $, .STERADIAN. ) SOLID_ANGLE_UNIT ( ) );
#34 = FILL_AREA_STYLE_COLOUR ( '', #155 ) ;
#35 = PRODUCT ( 'Hositrad_KF16R-V', 'Hositrad_KF16R-V', '', ( #63 ) ) ;
#36 = UNCERTAINTY_MEASURE_WITH_UNIT (LENGTH_MEASURE( 1.000000000000000100E-005 ), #129, 'distance_accuracy_value', 'NONE');
#37 = CARTESIAN_POINT ( 'NONE',  ( 1.408343819019455800E-015, 0.0000000000000000000, -11.49999999999999600 ) ) ;
#38 = ADVANCED_FACE ( 'NONE', ( #67 ), #121, .T. ) ;
#39 = DIRECTION ( 'NONE',  ( 0.0000000000000000000, 0.0000000000000000000, 1.000000000000000000 ) ) ;
#40 = UNCERTAINTY_MEASURE_WITH_UNIT (LENGTH_MEASURE( 1.000000000000000100E-005 ), #4, 'distance_accuracy_value', 'NONE');
#41 = PRESENTATION_STYLE_ASSIGNMENT (( #89 ) ) ;
#42 = STYLED_ITEM ( 'NONE', ( #14 ), #64 ) ;
#43 = MECHANICAL_DESIGN_GEOMETRIC_PRESENTATION_REPRESENTATION (  '', ( #190 ), #194 ) ;
#44 = EDGE_CURVE ( 'NONE', #163, #110, #75, .T. ) ;
#45 =( GEOMETRIC_REPRESENTATION_CONTEXT ( 3 ) GLOBAL_UNCERTAINTY_ASSIGNED_CONTEXT ( ( #209 ) ) GLOBAL_UNIT_ASSIGNED_CONTEXT ( ( #187, #139, #144 ) ) REPRESENTATION_CONTEXT ( 'NONE', 'WORKASPACE' ) );
#46 = MECHANICAL_DESIGN_GEOMETRIC_PRESENTATION_REPRESENTATION (  '', ( #102 ), #170 ) ;
#47 = SURFACE_STYLE_USAGE ( .BOTH. , #159 ) ;
#48 = EDGE_CURVE ( 'NONE', #100, #213, #60, .T. ) ;
#49 = CIRCLE ( 'NONE', #23, 8.999999999999996400 ) ;
#50 = AXIS2_PLACEMENT_3D ( 'NONE', #17, #133, #205 ) ;
#51 = MECHANICAL_DESIGN_GEOMETRIC_PRESENTATION_REPRESENTATION (  '', ( #42 ), #28 ) ;
#52 = DIRECTION ( 'NONE',  ( -0.0000000000000000000, 1.000000000000000000, -0.0000000000000000000 ) ) ;
#53 = MECHANICAL_DESIGN_GEOMETRIC_PRESENTATION_REPRESENTATION (  '', ( #54 ), #201 ) ;
#54 = STYLED_ITEM ( 'NONE', ( #123 ), #38 ) ;
#55 = DIRECTION ( 'NONE',  ( -0.0000000000000000000, 1.000000000000000000, -0.0000000000000000000 ) ) ;
#56 = FILL_AREA_STYLE ('',( #34 ) ) ;
#57 = SURFACE_SIDE_STYLE ('',( #3 ) ) ;
#58 = CIRCLE ( 'NONE', #186, 8.999999999999996400 ) ;
#59 = ORIENTED_EDGE ( 'NONE', *, *, #124, .F. ) ;
#60 = CIRCLE ( 'NONE', #115, 2.500000000000000400 ) ;
#61 = ORIENTED_EDGE ( 'NONE', *, *, #29, .F. ) ;
#62 = AXIS2_PLACEMENT_3D ( 'NONE', #161, #5, #39 ) ;
#63 = PRODUCT_CONTEXT ( 'NONE', #153, 'mechanical' ) ;
#64 = ADVANCED_FACE ( 'NONE', ( #217 ), #112, .T. ) ;
#65 = DIRECTION ( 'NONE',  ( 1.000000000000000000, 0.0000000000000000000, 1.224646799147353200E-016 ) ) ;
#66 = ORIENTED_EDGE ( 'NONE', *, *, #48, .F. ) ;
#67 = FACE_OUTER_BOUND ( 'NONE', #152, .T. ) ;
#68 = PRESENTATION_LAYER_ASSIGNMENT (  '', '', ( #102 ) ) ;
#69 = FILL_AREA_STYLE ('',( #32 ) ) ;
#70 = EDGE_LOOP ( 'NONE', ( #59, #66, #92, #85 ) ) ;
#71 = APPLICATION_PROTOCOL_DEFINITION ( 'draft international standard', 'automotive_design', 1998, #77 ) ;
#72 = CARTESIAN_POINT ( 'NONE',  ( 1.714505518806294200E-015, 0.0000000000000000000, -13.99999999999999600 ) ) ;
#73 = AXIS2_PLACEMENT_3D ( 'NONE', #37, #65, #15 ) ;
#74 = DIRECTION ( 'NONE',  ( -0.0000000000000000000, 1.000000000000000000, -0.0000000000000000000 ) ) ;
#75 = CIRCLE ( 'NONE', #21, 2.500000000000000400 ) ;
#76 = ORIENTED_EDGE ( 'NONE', *, *, #165, .F. ) ;
#77 = APPLICATION_CONTEXT ( 'automotive_design' ) ;
#78 = ADVANCED_FACE ( 'NONE', ( #24 ), #106, .T. ) ;
#79 = PRODUCT_DEFINITION_FORMATION_WITH_SPECIFIED_SOURCE ( 'ANY', '', #35, .NOT_KNOWN. ) ;
#80 = ORIENTED_EDGE ( 'NONE', *, *, #2, .T. ) ;
#81 = CARTESIAN_POINT ( 'NONE',  ( 0.0000000000000000000, 0.0000000000000000000, 0.0000000000000000000 ) ) ;
#82 = COLOUR_RGB ( '',0.0000000000000000000, 0.0000000000000000000, 0.0000000000000000000 ) ;
#83 = PRESENTATION_LAYER_ASSIGNMENT (  '', '', ( #42 ) ) ;
#84 = DIRECTION ( 'NONE',  ( 0.0000000000000000000, 0.0000000000000000000, 1.000000000000000000 ) ) ;
#85 = ORIENTED_EDGE ( 'NONE', *, *, #44, .T. ) ;
#86 = CARTESIAN_POINT ( 'NONE',  ( 0.0000000000000000000, 0.0000000000000000000, 0.0000000000000000000 ) ) ;
#87 = COLOUR_RGB ( '',0.2509803921568627400, 0.2509803921568627400, 0.2509803921568627400 ) ;
#88 = CARTESIAN_POINT ( 'NONE',  ( 0.0000000000000000000, 0.0000000000000000000, 13.99999999999999600 ) ) ;
#89 = SURFACE_STYLE_USAGE ( .BOTH. , #136 ) ;
#90 = ORIENTED_EDGE ( 'NONE', *, *, #109, .F. ) ;
#91 = DIRECTION ( 'NONE',  ( -0.0000000000000000000, 1.000000000000000000, -0.0000000000000000000 ) ) ;
#92 = ORIENTED_EDGE ( 'NONE', *, *, #165, .T. ) ;
#93 = ORIENTED_EDGE ( 'NONE', *, *, #29, .T. ) ;
#94 = SURFACE_SIDE_STYLE ('',( #11 ) ) ;
#95 = FILL_AREA_STYLE_COLOUR ( '', #192 ) ;
#96 = ORIENTED_EDGE ( 'NONE', *, *, #124, .T. ) ;
#97 =( GEOMETRIC_REPRESENTATION_CONTEXT ( 3 ) GLOBAL_UNCERTAINTY_ASSIGNED_CONTEXT ( ( #172 ) ) GLOBAL_UNIT_ASSIGNED_CONTEXT ( ( #137, #162, #126 ) ) REPRESENTATION_CONTEXT ( 'NONE', 'WORKASPACE' ) );
#98 =( NAMED_UNIT ( * ) SI_UNIT ( $, .STERADIAN. ) SOLID_ANGLE_UNIT ( ) );
#99 = CARTESIAN_POINT ( 'NONE',  ( 0.0000000000000000000, 0.0000000000000000000, 11.49999999999999600 ) ) ;
#100 = VERTEX_POINT ( 'NONE', #134 ) ;
#101 = FILL_AREA_STYLE ('',( #95 ) ) ;
#102 = STYLED_ITEM ( 'NONE', ( #128 ), #119 ) ;
#103 =( NAMED_UNIT ( * ) SI_UNIT ( $, .STERADIAN. ) SOLID_ANGLE_UNIT ( ) );
#104 = FILL_AREA_STYLE ('',( #171 ) ) ;
#105 = CARTESIAN_POINT ( 'NONE',  ( 0.0000000000000000000, -3.061616997868383100E-016, 0.0000000000000000000 ) ) ;
#106 = TOROIDAL_SURFACE ( 'NONE', #212, 11.49999999999999600, 2.500000000000000000 ) ;
#107 = FILL_AREA_STYLE ('',( #140 ) ) ;
#108 = SURFACE_STYLE_USAGE ( .BOTH. , #164 ) ;
#109 = EDGE_CURVE ( 'NONE', #110, #163, #181, .T. ) ;
#110 = VERTEX_POINT ( 'NONE', #88 ) ;
#111 = DIRECTION ( 'NONE',  ( 0.0000000000000000000, 0.0000000000000000000, 1.000000000000000000 ) ) ;
#112 = TOROIDAL_SURFACE ( 'NONE', #176, 11.49999999999999600, 2.500000000000000000 ) ;
#113 = SURFACE_STYLE_USAGE ( .BOTH. , #57 ) ;
#114 = EDGE_LOOP ( 'NONE', ( #61, #122, #6, #184 ) ) ;
#115 = AXIS2_PLACEMENT_3D ( 'NONE', #142, #1, #146 ) ;
#116 = ORIENTED_EDGE ( 'NONE', *, *, #2, .F. ) ;
#117 = DIRECTION ( 'NONE',  ( -0.0000000000000000000, 1.000000000000000000, -0.0000000000000000000 ) ) ;
#118 =( NAMED_UNIT ( * ) PLANE_ANGLE_UNIT ( ) SI_UNIT ( $, .RADIAN. ) );
#119 = MANIFOLD_SOLID_BREP ( 'Revolve1', #120 ) ;
#120 = CLOSED_SHELL ( 'NONE', ( #38, #64, #78, #179 ) ) ;
#121 = TOROIDAL_SURFACE ( 'NONE', #62, 11.49999999999999600, 2.500000000000000000 ) ;
#122 = ORIENTED_EDGE ( 'NONE', *, *, #44, .F. ) ;
#123 = PRESENTATION_STYLE_ASSIGNMENT (( #7 ) ) ;
#124 = EDGE_CURVE ( 'NONE', #213, #110, #195, .T. ) ;
#125 = CARTESIAN_POINT ( 'NONE',  ( 0.0000000000000000000, -3.061616997868382600E-016, 8.999999999999996400 ) ) ;
#126 =( NAMED_UNIT ( * ) SI_UNIT ( $, .STERADIAN. ) SOLID_ANGLE_UNIT ( ) );
#127 = UNCERTAINTY_MEASURE_WITH_UNIT (LENGTH_MEASURE( 1.000000000000000100E-005 ), #177, 'distance_accuracy_value', 'NONE');
#128 = PRESENTATION_STYLE_ASSIGNMENT (( #113 ) ) ;
#129 =( LENGTH_UNIT ( ) NAMED_UNIT ( * ) SI_UNIT ( .MILLI., .METRE. ) );
#130 =( LENGTH_UNIT ( ) NAMED_UNIT ( * ) SI_UNIT ( .MILLI., .METRE. ) );
#131 = DIRECTION ( 'NONE',  ( 0.0000000000000000000, 0.0000000000000000000, 1.000000000000000000 ) ) ;
#132 =( NAMED_UNIT ( * ) PLANE_ANGLE_UNIT ( ) SI_UNIT ( $, .RADIAN. ) );
#133 = DIRECTION ( 'NONE',  ( 0.0000000000000000000, 0.0000000000000000000, 1.000000000000000000 ) ) ;
#134 = CARTESIAN_POINT ( 'NONE',  ( 1.102182119232617300E-015, -3.061616997868382600E-016, -8.999999999999996400 ) ) ;
#135 = ORIENTED_EDGE ( 'NONE', *, *, #109, .T. ) ;
#136 = SURFACE_SIDE_STYLE ('',( #10 ) ) ;
#137 =( LENGTH_UNIT ( ) NAMED_UNIT ( * ) SI_UNIT ( .MILLI., .METRE. ) );
#138 =( LENGTH_UNIT ( ) NAMED_UNIT ( * ) SI_UNIT ( .MILLI., .METRE. ) );
#139 =( NAMED_UNIT ( * ) PLANE_ANGLE_UNIT ( ) SI_UNIT ( $, .RADIAN. ) );
#140 = FILL_AREA_STYLE_COLOUR ( '', #87 ) ;
#141 = DIRECTION ( 'NONE',  ( -0.0000000000000000000, 1.000000000000000000, -0.0000000000000000000 ) ) ;
#142 = CARTESIAN_POINT ( 'NONE',  ( 1.408343819019455800E-015, 0.0000000000000000000, -11.49999999999999600 ) ) ;
#143 = STYLED_ITEM ( 'NONE', ( #30 ), #78 ) ;
#144 =( NAMED_UNIT ( * ) SI_UNIT ( $, .STERADIAN. ) SOLID_ANGLE_UNIT ( ) );
#145 =( NAMED_UNIT ( * ) SI_UNIT ( $, .STERADIAN. ) SOLID_ANGLE_UNIT ( ) );
#146 = DIRECTION ( 'NONE',  ( 1.224646799147353500E-016, 0.0000000000000000000, -1.000000000000000000 ) ) ;
#147 = TOROIDAL_SURFACE ( 'NONE', #168, 11.49999999999999600, 2.500000000000000000 ) ;
#148 = FILL_AREA_STYLE ('',( #183 ) ) ;
#149 = CARTESIAN_POINT ( 'NONE',  ( 0.0000000000000000000, 0.0000000000000000000, 0.0000000000000000000 ) ) ;
#150 =( NAMED_UNIT ( * ) PLANE_ANGLE_UNIT ( ) SI_UNIT ( $, .RADIAN. ) );
#151 = DIRECTION ( 'NONE',  ( 0.0000000000000000000, 0.0000000000000000000, 1.000000000000000000 ) ) ;
#152 = EDGE_LOOP ( 'NONE', ( #116, #96, #135, #76 ) ) ;
#153 = APPLICATION_CONTEXT ( 'automotive_design' ) ;
#154 = DIRECTION ( 'NONE',  ( -1.000000000000000000, 0.0000000000000000000, 0.0000000000000000000 ) ) ;
#155 = COLOUR_RGB ( '',0.0000000000000000000, 0.0000000000000000000, 0.0000000000000000000 ) ;
#156 =( NAMED_UNIT ( * ) SI_UNIT ( $, .STERADIAN. ) SOLID_ANGLE_UNIT ( ) );
#157 = DIRECTION ( 'NONE',  ( -1.000000000000000000, 0.0000000000000000000, 0.0000000000000000000 ) ) ;
#158 = COLOUR_RGB ( '',0.2509803921568627400, 0.2509803921568627400, 0.2509803921568627400 ) ;
#159 = SURFACE_SIDE_STYLE ('',( #25 ) ) ;
#160 = PRODUCT_DEFINITION_CONTEXT ( 'detailed design', #77, 'design' ) ;
#161 = CARTESIAN_POINT ( 'NONE',  ( 0.0000000000000000000, 0.0000000000000000000, 0.0000000000000000000 ) ) ;
#162 =( NAMED_UNIT ( * ) PLANE_ANGLE_UNIT ( ) SI_UNIT ( $, .RADIAN. ) );
#163 = VERTEX_POINT ( 'NONE', #125 ) ;
#164 = SURFACE_SIDE_STYLE ('',( #31 ) ) ;
#165 = EDGE_CURVE ( 'NONE', #100, #163, #58, .T. ) ;
#166 =( NAMED_UNIT ( * ) PLANE_ANGLE_UNIT ( ) SI_UNIT ( $, .RADIAN. ) );
#167 = ADVANCED_BREP_SHAPE_REPRESENTATION ( 'Hositrad_KF16R-V', ( #119, #50 ), #97 ) ;
#168 = AXIS2_PLACEMENT_3D ( 'NONE', #81, #91, #151 ) ;
#169 = CIRCLE ( 'NONE', #73, 2.500000000000000400 ) ;
#170 =( GEOMETRIC_REPRESENTATION_CONTEXT ( 3 ) GLOBAL_UNCERTAINTY_ASSIGNED_CONTEXT ( ( #202 ) ) GLOBAL_UNIT_ASSIGNED_CONTEXT ( ( #130, #166, #156 ) ) REPRESENTATION_CONTEXT ( 'NONE', 'WORKASPACE' ) );
#171 = FILL_AREA_STYLE_COLOUR ( '', #26 ) ;
#172 = UNCERTAINTY_MEASURE_WITH_UNIT (LENGTH_MEASURE( 1.000000000000000100E-005 ), #137, 'distance_accuracy_value', 'NONE');
#173 = SURFACE_STYLE_USAGE ( .BOTH. , #218 ) ;
#174 = DIRECTION ( 'NONE',  ( 0.0000000000000000000, 0.0000000000000000000, 1.000000000000000000 ) ) ;
#175 = EDGE_LOOP ( 'NONE', ( #90, #93, #80, #199 ) ) ;
#176 = AXIS2_PLACEMENT_3D ( 'NONE', #9, #74, #180 ) ;
#177 =( LENGTH_UNIT ( ) NAMED_UNIT ( * ) SI_UNIT ( .MILLI., .METRE. ) );
#178 = CARTESIAN_POINT ( 'NONE',  ( 0.0000000000000000000, 0.0000000000000000000, 0.0000000000000000000 ) ) ;
#179 = ADVANCED_FACE ( 'NONE', ( #200 ), #147, .T. ) ;
#180 = DIRECTION ( 'NONE',  ( 0.0000000000000000000, 0.0000000000000000000, 1.000000000000000000 ) ) ;
#181 = CIRCLE ( 'NONE', #211, 2.500000000000000400 ) ;
#182 = CIRCLE ( 'NONE', #198, 13.99999999999999600 ) ;
#183 = FILL_AREA_STYLE_COLOUR ( '', #82 ) ;
#184 = ORIENTED_EDGE ( 'NONE', *, *, #48, .T. ) ;
#185 = APPLICATION_PROTOCOL_DEFINITION ( 'draft international standard', 'automotive_design', 1998, #153 ) ;
#186 = AXIS2_PLACEMENT_3D ( 'NONE', #105, #141, #197 ) ;
#187 =( LENGTH_UNIT ( ) NAMED_UNIT ( * ) SI_UNIT ( .MILLI., .METRE. ) );
#188 = PRESENTATION_LAYER_ASSIGNMENT (  '', '', ( #143 ) ) ;
#189 = DIRECTION ( 'NONE',  ( -0.0000000000000000000, 1.000000000000000000, -0.0000000000000000000 ) ) ;
#190 = STYLED_ITEM ( 'NONE', ( #41 ), #167 ) ;
#191 = MECHANICAL_DESIGN_GEOMETRIC_PRESENTATION_REPRESENTATION (  '', ( #203 ), #45 ) ;
#192 = COLOUR_RGB ( '',0.2509803921568627400, 0.2509803921568627400, 0.2509803921568627400 ) ;
#193 = PRESENTATION_LAYER_ASSIGNMENT (  '', '', ( #190 ) ) ;
#194 =( GEOMETRIC_REPRESENTATION_CONTEXT ( 3 ) GLOBAL_UNCERTAINTY_ASSIGNED_CONTEXT ( ( #20 ) ) GLOBAL_UNIT_ASSIGNED_CONTEXT ( ( #138, #132, #103 ) ) REPRESENTATION_CONTEXT ( 'NONE', 'WORKASPACE' ) );
#195 = CIRCLE ( 'NONE', #210, 13.99999999999999600 ) ;
#196 =( GEOMETRIC_REPRESENTATION_CONTEXT ( 3 ) GLOBAL_UNCERTAINTY_ASSIGNED_CONTEXT ( ( #127 ) ) GLOBAL_UNIT_ASSIGNED_CONTEXT ( ( #177, #150, #145 ) ) REPRESENTATION_CONTEXT ( 'NONE', 'WORKASPACE' ) );
#197 = DIRECTION ( 'NONE',  ( 0.0000000000000000000, 0.0000000000000000000, 1.000000000000000000 ) ) ;
#198 = AXIS2_PLACEMENT_3D ( 'NONE', #86, #55, #13 ) ;
#199 = ORIENTED_EDGE ( 'NONE', *, *, #12, .F. ) ;
#200 = FACE_OUTER_BOUND ( 'NONE', #70, .T. ) ;
#201 =( GEOMETRIC_REPRESENTATION_CONTEXT ( 3 ) GLOBAL_UNCERTAINTY_ASSIGNED_CONTEXT ( ( #40 ) ) GLOBAL_UNIT_ASSIGNED_CONTEXT ( ( #4, #22, #33 ) ) REPRESENTATION_CONTEXT ( 'NONE', 'WORKASPACE' ) );
#202 = UNCERTAINTY_MEASURE_WITH_UNIT (LENGTH_MEASURE( 1.000000000000000100E-005 ), #130, 'distance_accuracy_value', 'NONE');
#203 = STYLED_ITEM ( 'NONE', ( #208 ), #179 ) ;
#204 = SURFACE_STYLE_FILL_AREA ( #101 ) ;
#205 = DIRECTION ( 'NONE',  ( 1.000000000000000000, 0.0000000000000000000, 0.0000000000000000000 ) ) ;
#206 = DIRECTION ( 'NONE',  ( 0.0000000000000000000, 0.0000000000000000000, 1.000000000000000000 ) ) ;
#207 = PRESENTATION_LAYER_ASSIGNMENT (  '', '', ( #203 ) ) ;
#208 = PRESENTATION_STYLE_ASSIGNMENT (( #173 ) ) ;
#209 = UNCERTAINTY_MEASURE_WITH_UNIT (LENGTH_MEASURE( 1.000000000000000100E-005 ), #187, 'distance_accuracy_value', 'NONE');
#210 = AXIS2_PLACEMENT_3D ( 'NONE', #149, #189, #84 ) ;
#211 = AXIS2_PLACEMENT_3D ( 'NONE', #99, #157, #131 ) ;
#212 = AXIS2_PLACEMENT_3D ( 'NONE', #178, #117, #111 ) ;
#213 = VERTEX_POINT ( 'NONE', #72 ) ;
#214 = PRODUCT_DEFINITION ( 'UNKNOWN', '', #79, #160 ) ;
#215 = PRESENTATION_LAYER_ASSIGNMENT (  '', '', ( #54 ) ) ;
#216 = PRODUCT_DEFINITION_SHAPE ( 'NONE', 'NONE',  #214 ) ;
#217 = FACE_OUTER_BOUND ( 'NONE', #175, .T. ) ;
#218 = SURFACE_SIDE_STYLE ('',( #204 ) ) ;
ENDSEC;
END-ISO-10303-21;
