ISO-10303-21;
HEADER;
FILE_DESCRIPTION (( 'STEP AP214' ),
    '1' );
FILE_NAME ('Hositrad_KF25R-V.STEP',
    '2017-05-26T08:07:12',
    ( 'Gebruiker' ),
    ( '' ),
    'SwSTEP 2.0',
    'SolidWorks 2017',
    '' );
FILE_SCHEMA (( 'AUTOMOTIVE_DESIGN' ));
ENDSEC;

DATA;
#1 = CIRCLE ( 'NONE', #2, 2.499999999999998700 ) ;
#2 = AXIS2_PLACEMENT_3D ( 'NONE', #16, #37, #106 ) ;
#3 = CARTESIAN_POINT ( 'NONE',  ( 2.326828918379970600E-015, 0.0000000000000000000, -18.99999999999999600 ) ) ;
#4 = CARTESIAN_POINT ( 'NONE',  ( 0.0000000000000000000, -3.061616997868383100E-016, 0.0000000000000000000 ) ) ;
#5 = CARTESIAN_POINT ( 'NONE',  ( 0.0000000000000000000, 0.0000000000000000000, 0.0000000000000000000 ) ) ;
#6 = APPLICATION_CONTEXT ( 'automotive_design' ) ;
#7 = STYLED_ITEM ( 'NONE', ( #126 ), #20 ) ;
#8 = COLOUR_RGB ( '',0.0000000000000000000, 0.0000000000000000000, 0.0000000000000000000 ) ;
#9 = CARTESIAN_POINT ( 'NONE',  ( 0.0000000000000000000, 0.0000000000000000000, 0.0000000000000000000 ) ) ;
#10 = SURFACE_STYLE_USAGE ( .BOTH. , #60 ) ;
#11 = CIRCLE ( 'NONE', #181, 2.499999999999998700 ) ;
#12 = MANIFOLD_SOLID_BREP ( 'Revolve1', #185 ) ;
#13 = CARTESIAN_POINT ( 'NONE',  ( 0.0000000000000000000, 0.0000000000000000000, 0.0000000000000000000 ) ) ;
#14 =( NAMED_UNIT ( * ) SI_UNIT ( $, .STERADIAN. ) SOLID_ANGLE_UNIT ( ) );
#15 = COLOUR_RGB ( '',0.0000000000000000000, 0.0000000000000000000, 0.0000000000000000000 ) ;
#16 = CARTESIAN_POINT ( 'NONE',  ( 0.0000000000000000000, 0.0000000000000000000, 16.49999999999999600 ) ) ;
#17 = EDGE_CURVE ( 'NONE', #122, #160, #1, .T. ) ;
#18 = ORIENTED_EDGE ( 'NONE', *, *, #17, .F. ) ;
#19 = FACE_OUTER_BOUND ( 'NONE', #151, .T. ) ;
#20 = ADVANCED_BREP_SHAPE_REPRESENTATION ( 'Hositrad_KF25R-V', ( #12, #28 ), #195 ) ;
#21 = FILL_AREA_STYLE ('',( #46 ) ) ;
#22 = MECHANICAL_DESIGN_GEOMETRIC_PRESENTATION_REPRESENTATION (  '', ( #133 ), #214 ) ;
#23 = SURFACE_SIDE_STYLE ('',( #179 ) ) ;
#24 =( LENGTH_UNIT ( ) NAMED_UNIT ( * ) SI_UNIT ( .MILLI., .METRE. ) );
#25 = DIRECTION ( 'NONE',  ( -0.0000000000000000000, 1.000000000000000000, -0.0000000000000000000 ) ) ;
#26 = CARTESIAN_POINT ( 'NONE',  ( 2.020667218593132700E-015, 0.0000000000000000000, -16.49999999999999600 ) ) ;
#27 = UNCERTAINTY_MEASURE_WITH_UNIT (LENGTH_MEASURE( 1.000000000000000100E-005 ), #40, 'distance_accuracy_value', 'NONE');
#28 = AXIS2_PLACEMENT_3D ( 'NONE', #13, #107, #118 ) ;
#29 = TOROIDAL_SURFACE ( 'NONE', #125, 16.49999999999999600, 2.500000000000000000 ) ;
#30 = CARTESIAN_POINT ( 'NONE',  ( 0.0000000000000000000, 0.0000000000000000000, 0.0000000000000000000 ) ) ;
#31 = ORIENTED_EDGE ( 'NONE', *, *, #147, .T. ) ;
#32 = PRESENTATION_STYLE_ASSIGNMENT (( #10 ) ) ;
#33 =( LENGTH_UNIT ( ) NAMED_UNIT ( * ) SI_UNIT ( .MILLI., .METRE. ) );
#34 = PRODUCT_DEFINITION_CONTEXT ( 'detailed design', #134, 'design' ) ;
#35 = DIRECTION ( 'NONE',  ( -0.0000000000000000000, 1.000000000000000000, -0.0000000000000000000 ) ) ;
#36 = FACE_OUTER_BOUND ( 'NONE', #218, .T. ) ;
#37 = DIRECTION ( 'NONE',  ( -1.000000000000000000, 0.0000000000000000000, 0.0000000000000000000 ) ) ;
#38 = SURFACE_SIDE_STYLE ('',( #203 ) ) ;
#39 = SURFACE_STYLE_USAGE ( .BOTH. , #23 ) ;
#40 =( LENGTH_UNIT ( ) NAMED_UNIT ( * ) SI_UNIT ( .MILLI., .METRE. ) );
#41 = DIRECTION ( 'NONE',  ( 0.0000000000000000000, 0.0000000000000000000, 1.000000000000000000 ) ) ;
#42 = FILL_AREA_STYLE ('',( #174 ) ) ;
#43 = PRESENTATION_LAYER_ASSIGNMENT (  '', '', ( #213 ) ) ;
#44 =( GEOMETRIC_REPRESENTATION_CONTEXT ( 3 ) GLOBAL_UNCERTAINTY_ASSIGNED_CONTEXT ( ( #108 ) ) GLOBAL_UNIT_ASSIGNED_CONTEXT ( ( #191, #188, #86 ) ) REPRESENTATION_CONTEXT ( 'NONE', 'WORKASPACE' ) );
#45 = DIRECTION ( 'NONE',  ( -0.0000000000000000000, 1.000000000000000000, -0.0000000000000000000 ) ) ;
#46 = FILL_AREA_STYLE_COLOUR ( '', #8 ) ;
#47 = CIRCLE ( 'NONE', #140, 13.99999999999999600 ) ;
#48 = PRESENTATION_STYLE_ASSIGNMENT (( #84 ) ) ;
#49 = ORIENTED_EDGE ( 'NONE', *, *, #17, .T. ) ;
#50 = DIRECTION ( 'NONE',  ( 0.0000000000000000000, 0.0000000000000000000, 1.000000000000000000 ) ) ;
#51 = PRESENTATION_LAYER_ASSIGNMENT (  '', '', ( #133 ) ) ;
#52 = DIRECTION ( 'NONE',  ( -0.0000000000000000000, 1.000000000000000000, -0.0000000000000000000 ) ) ;
#53 = DIRECTION ( 'NONE',  ( -0.0000000000000000000, 1.000000000000000000, -0.0000000000000000000 ) ) ;
#54 = CARTESIAN_POINT ( 'NONE',  ( 0.0000000000000000000, -3.061616997868382600E-016, 13.99999999999999600 ) ) ;
#55 = PRODUCT_DEFINITION_SHAPE ( 'NONE', 'NONE',  #87 ) ;
#56 =( NAMED_UNIT ( * ) PLANE_ANGLE_UNIT ( ) SI_UNIT ( $, .RADIAN. ) );
#57 = PRODUCT ( 'Hositrad_KF25R-V', 'Hositrad_KF25R-V', '', ( #120 ) ) ;
#58 = AXIS2_PLACEMENT_3D ( 'NONE', #186, #53, #72 ) ;
#59 = ORIENTED_EDGE ( 'NONE', *, *, #100, .T. ) ;
#60 = SURFACE_SIDE_STYLE ('',( #94 ) ) ;
#61 = SURFACE_STYLE_FILL_AREA ( #63 ) ;
#62 =( GEOMETRIC_REPRESENTATION_CONTEXT ( 3 ) GLOBAL_UNCERTAINTY_ASSIGNED_CONTEXT ( ( #27 ) ) GLOBAL_UNIT_ASSIGNED_CONTEXT ( ( #40, #56, #90 ) ) REPRESENTATION_CONTEXT ( 'NONE', 'WORKASPACE' ) );
#63 = FILL_AREA_STYLE ('',( #121 ) ) ;
#64 = PRESENTATION_STYLE_ASSIGNMENT (( #103 ) ) ;
#65 =( GEOMETRIC_REPRESENTATION_CONTEXT ( 3 ) GLOBAL_UNCERTAINTY_ASSIGNED_CONTEXT ( ( #196 ) ) GLOBAL_UNIT_ASSIGNED_CONTEXT ( ( #149, #66, #184 ) ) REPRESENTATION_CONTEXT ( 'NONE', 'WORKASPACE' ) );
#66 =( NAMED_UNIT ( * ) PLANE_ANGLE_UNIT ( ) SI_UNIT ( $, .RADIAN. ) );
#67 = SURFACE_STYLE_FILL_AREA ( #99 ) ;
#68 = CARTESIAN_POINT ( 'NONE',  ( 0.0000000000000000000, 0.0000000000000000000, 0.0000000000000000000 ) ) ;
#69 = ORIENTED_EDGE ( 'NONE', *, *, #124, .F. ) ;
#70 = ORIENTED_EDGE ( 'NONE', *, *, #129, .T. ) ;
#71 = MECHANICAL_DESIGN_GEOMETRIC_PRESENTATION_REPRESENTATION (  '', ( #213 ), #167 ) ;
#72 = DIRECTION ( 'NONE',  ( 0.0000000000000000000, 0.0000000000000000000, 1.000000000000000000 ) ) ;
#73 = DIRECTION ( 'NONE',  ( 1.000000000000000000, 0.0000000000000000000, 1.224646799147353200E-016 ) ) ;
#74 = PRODUCT_DEFINITION_FORMATION_WITH_SPECIFIED_SOURCE ( 'ANY', '', #57, .NOT_KNOWN. ) ;
#75 =( NAMED_UNIT ( * ) SI_UNIT ( $, .STERADIAN. ) SOLID_ANGLE_UNIT ( ) );
#76 = SHAPE_DEFINITION_REPRESENTATION ( #55, #20 ) ;
#77 = DIRECTION ( 'NONE',  ( -1.000000000000000000, 0.0000000000000000000, 0.0000000000000000000 ) ) ;
#78 = EDGE_CURVE ( 'NONE', #93, #82, #11, .T. ) ;
#79 = COLOUR_RGB ( '',0.2509803921568627400, 0.2509803921568627400, 0.2509803921568627400 ) ;
#80 = DIRECTION ( 'NONE',  ( 0.0000000000000000000, 0.0000000000000000000, 1.000000000000000000 ) ) ;
#81 = SURFACE_SIDE_STYLE ('',( #61 ) ) ;
#82 = VERTEX_POINT ( 'NONE', #117 ) ;
#83 = SURFACE_SIDE_STYLE ('',( #67 ) ) ;
#84 = SURFACE_STYLE_USAGE ( .BOTH. , #81 ) ;
#85 = CARTESIAN_POINT ( 'NONE',  ( 2.020667218593132700E-015, 0.0000000000000000000, -16.49999999999999600 ) ) ;
#86 =( NAMED_UNIT ( * ) SI_UNIT ( $, .STERADIAN. ) SOLID_ANGLE_UNIT ( ) );
#87 = PRODUCT_DEFINITION ( 'UNKNOWN', '', #74, #34 ) ;
#88 = DIRECTION ( 'NONE',  ( 1.000000000000000000, 0.0000000000000000000, 1.224646799147353200E-016 ) ) ;
#89 = STYLED_ITEM ( 'NONE', ( #64 ), #141 ) ;
#90 =( NAMED_UNIT ( * ) SI_UNIT ( $, .STERADIAN. ) SOLID_ANGLE_UNIT ( ) );
#91 = CARTESIAN_POINT ( 'NONE',  ( 0.0000000000000000000, 0.0000000000000000000, 16.49999999999999600 ) ) ;
#92 = DIRECTION ( 'NONE',  ( 0.0000000000000000000, 0.0000000000000000000, 1.000000000000000000 ) ) ;
#93 = VERTEX_POINT ( 'NONE', #3 ) ;
#94 = SURFACE_STYLE_FILL_AREA ( #42 ) ;
#95 = FILL_AREA_STYLE_COLOUR ( '', #158 ) ;
#96 = STYLED_ITEM ( 'NONE', ( #48 ), #197 ) ;
#97 = SURFACE_STYLE_FILL_AREA ( #187 ) ;
#98 =( LENGTH_UNIT ( ) NAMED_UNIT ( * ) SI_UNIT ( .MILLI., .METRE. ) );
#99 = FILL_AREA_STYLE ('',( #95 ) ) ;
#100 = EDGE_CURVE ( 'NONE', #160, #93, #176, .T. ) ;
#101 = AXIS2_PLACEMENT_3D ( 'NONE', #5, #35, #50 ) ;
#102 = ORIENTED_EDGE ( 'NONE', *, *, #100, .F. ) ;
#103 = SURFACE_STYLE_USAGE ( .BOTH. , #104 ) ;
#104 = SURFACE_SIDE_STYLE ('',( #97 ) ) ;
#105 = FILL_AREA_STYLE_COLOUR ( '', #15 ) ;
#106 = DIRECTION ( 'NONE',  ( 0.0000000000000000000, 0.0000000000000000000, 1.000000000000000000 ) ) ;
#107 = DIRECTION ( 'NONE',  ( 0.0000000000000000000, 0.0000000000000000000, 1.000000000000000000 ) ) ;
#108 = UNCERTAINTY_MEASURE_WITH_UNIT (LENGTH_MEASURE( 1.000000000000000100E-005 ), #191, 'distance_accuracy_value', 'NONE');
#109 = ORIENTED_EDGE ( 'NONE', *, *, #112, .T. ) ;
#110 = CIRCLE ( 'NONE', #208, 2.499999999999998700 ) ;
#111 = TOROIDAL_SURFACE ( 'NONE', #177, 16.49999999999999600, 2.500000000000000000 ) ;
#112 = EDGE_CURVE ( 'NONE', #93, #160, #183, .T. ) ;
#113 = FACE_OUTER_BOUND ( 'NONE', #164, .T. ) ;
#114 = CIRCLE ( 'NONE', #165, 2.499999999999998700 ) ;
#115 = CARTESIAN_POINT ( 'NONE',  ( 0.0000000000000000000, 0.0000000000000000000, 0.0000000000000000000 ) ) ;
#116 = MECHANICAL_DESIGN_GEOMETRIC_PRESENTATION_REPRESENTATION (  '', ( #190 ), #65 ) ;
#117 = CARTESIAN_POINT ( 'NONE',  ( 1.714505518806294200E-015, -3.061616997868382600E-016, -13.99999999999999600 ) ) ;
#118 = DIRECTION ( 'NONE',  ( 1.000000000000000000, 0.0000000000000000000, 0.0000000000000000000 ) ) ;
#119 = UNCERTAINTY_MEASURE_WITH_UNIT (LENGTH_MEASURE( 1.000000000000000100E-005 ), #33, 'distance_accuracy_value', 'NONE');
#120 = PRODUCT_CONTEXT ( 'NONE', #6, 'mechanical' ) ;
#121 = FILL_AREA_STYLE_COLOUR ( '', #182 ) ;
#122 = VERTEX_POINT ( 'NONE', #54 ) ;
#123 = AXIS2_PLACEMENT_3D ( 'NONE', #115, #205, #150 ) ;
#124 = EDGE_CURVE ( 'NONE', #82, #122, #47, .T. ) ;
#125 = AXIS2_PLACEMENT_3D ( 'NONE', #9, #25, #92 ) ;
#126 = PRESENTATION_STYLE_ASSIGNMENT (( #39 ) ) ;
#127 = TOROIDAL_SURFACE ( 'NONE', #172, 16.49999999999999600, 2.500000000000000000 ) ;
#128 = DIRECTION ( 'NONE',  ( 1.224646799147354200E-016, 0.0000000000000000000, -1.000000000000000000 ) ) ;
#129 = EDGE_CURVE ( 'NONE', #122, #82, #138, .T. ) ;
#130 = ORIENTED_EDGE ( 'NONE', *, *, #78, .F. ) ;
#131 = DIRECTION ( 'NONE',  ( -0.0000000000000000000, 1.000000000000000000, -0.0000000000000000000 ) ) ;
#132 = UNCERTAINTY_MEASURE_WITH_UNIT (LENGTH_MEASURE( 1.000000000000000100E-005 ), #201, 'distance_accuracy_value', 'NONE');
#133 = STYLED_ITEM ( 'NONE', ( #207 ), #192 ) ;
#134 = APPLICATION_CONTEXT ( 'automotive_design' ) ;
#135 =( NAMED_UNIT ( * ) PLANE_ANGLE_UNIT ( ) SI_UNIT ( $, .RADIAN. ) );
#136 = ORIENTED_EDGE ( 'NONE', *, *, #124, .T. ) ;
#137 = PRESENTATION_LAYER_ASSIGNMENT (  '', '', ( #89 ) ) ;
#138 = CIRCLE ( 'NONE', #58, 13.99999999999999600 ) ;
#139 = UNCERTAINTY_MEASURE_WITH_UNIT (LENGTH_MEASURE( 1.000000000000000100E-005 ), #24, 'distance_accuracy_value', 'NONE');
#140 = AXIS2_PLACEMENT_3D ( 'NONE', #4, #52, #212 ) ;
#141 = ADVANCED_FACE ( 'NONE', ( #146 ), #152, .T. ) ;
#142 = ORIENTED_EDGE ( 'NONE', *, *, #112, .F. ) ;
#143 =( NAMED_UNIT ( * ) PLANE_ANGLE_UNIT ( ) SI_UNIT ( $, .RADIAN. ) );
#144 =( NAMED_UNIT ( * ) PLANE_ANGLE_UNIT ( ) SI_UNIT ( $, .RADIAN. ) );
#145 =( NAMED_UNIT ( * ) SI_UNIT ( $, .STERADIAN. ) SOLID_ANGLE_UNIT ( ) );
#146 = FACE_OUTER_BOUND ( 'NONE', #210, .T. ) ;
#147 = EDGE_CURVE ( 'NONE', #82, #93, #110, .T. ) ;
#148 = FILL_AREA_STYLE_COLOUR ( '', #193 ) ;
#149 =( LENGTH_UNIT ( ) NAMED_UNIT ( * ) SI_UNIT ( .MILLI., .METRE. ) );
#150 = DIRECTION ( 'NONE',  ( 0.0000000000000000000, 0.0000000000000000000, 1.000000000000000000 ) ) ;
#151 = EDGE_LOOP ( 'NONE', ( #130, #109, #202, #69 ) ) ;
#152 = TOROIDAL_SURFACE ( 'NONE', #123, 16.49999999999999600, 2.500000000000000000 ) ;
#153 = SURFACE_STYLE_USAGE ( .BOTH. , #38 ) ;
#154 = APPLICATION_PROTOCOL_DEFINITION ( 'draft international standard', 'automotive_design', 1998, #134 ) ;
#155 = MECHANICAL_DESIGN_GEOMETRIC_PRESENTATION_REPRESENTATION (  '', ( #7 ), #62 ) ;
#156 =( NAMED_UNIT ( * ) SI_UNIT ( $, .STERADIAN. ) SOLID_ANGLE_UNIT ( ) );
#157 = CARTESIAN_POINT ( 'NONE',  ( 0.0000000000000000000, 0.0000000000000000000, 0.0000000000000000000 ) ) ;
#158 = COLOUR_RGB ( '',0.2509803921568627400, 0.2509803921568627400, 0.2509803921568627400 ) ;
#159 = AXIS2_PLACEMENT_3D ( 'NONE', #68, #131, #169 ) ;
#160 = VERTEX_POINT ( 'NONE', #171 ) ;
#161 = ADVANCED_FACE ( 'NONE', ( #36 ), #29, .T. ) ;
#162 = PRODUCT_RELATED_PRODUCT_CATEGORY ( 'part', '', ( #57 ) ) ;
#163 = DIRECTION ( 'NONE',  ( 0.0000000000000000000, 0.0000000000000000000, 1.000000000000000000 ) ) ;
#164 = EDGE_LOOP ( 'NONE', ( #102, #18, #70, #31 ) ) ;
#165 = AXIS2_PLACEMENT_3D ( 'NONE', #91, #77, #41 ) ;
#166 = PRESENTATION_LAYER_ASSIGNMENT (  '', '', ( #7 ) ) ;
#167 =( GEOMETRIC_REPRESENTATION_CONTEXT ( 3 ) GLOBAL_UNCERTAINTY_ASSIGNED_CONTEXT ( ( #139 ) ) GLOBAL_UNIT_ASSIGNED_CONTEXT ( ( #24, #135, #75 ) ) REPRESENTATION_CONTEXT ( 'NONE', 'WORKASPACE' ) );
#168 = PRESENTATION_LAYER_ASSIGNMENT (  '', '', ( #190 ) ) ;
#169 = DIRECTION ( 'NONE',  ( 0.0000000000000000000, 0.0000000000000000000, 1.000000000000000000 ) ) ;
#170 = ORIENTED_EDGE ( 'NONE', *, *, #78, .T. ) ;
#171 = CARTESIAN_POINT ( 'NONE',  ( 0.0000000000000000000, 0.0000000000000000000, 18.99999999999999600 ) ) ;
#172 = AXIS2_PLACEMENT_3D ( 'NONE', #157, #45, #163 ) ;
#173 =( NAMED_UNIT ( * ) PLANE_ANGLE_UNIT ( ) SI_UNIT ( $, .RADIAN. ) );
#174 = FILL_AREA_STYLE_COLOUR ( '', #79 ) ;
#175 = ORIENTED_EDGE ( 'NONE', *, *, #147, .F. ) ;
#176 = CIRCLE ( 'NONE', #159, 18.99999999999999600 ) ;
#177 = AXIS2_PLACEMENT_3D ( 'NONE', #30, #216, #80 ) ;
#178 = EDGE_CURVE ( 'NONE', #160, #122, #114, .T. ) ;
#179 = SURFACE_STYLE_FILL_AREA ( #21 ) ;
#180 = SURFACE_STYLE_USAGE ( .BOTH. , #83 ) ;
#181 = AXIS2_PLACEMENT_3D ( 'NONE', #85, #88, #128 ) ;
#182 = COLOUR_RGB ( '',0.2509803921568627400, 0.2509803921568627400, 0.2509803921568627400 ) ;
#183 = CIRCLE ( 'NONE', #101, 18.99999999999999600 ) ;
#184 =( NAMED_UNIT ( * ) SI_UNIT ( $, .STERADIAN. ) SOLID_ANGLE_UNIT ( ) );
#185 = CLOSED_SHELL ( 'NONE', ( #197, #141, #192, #161 ) ) ;
#186 = CARTESIAN_POINT ( 'NONE',  ( 0.0000000000000000000, -3.061616997868383100E-016, 0.0000000000000000000 ) ) ;
#187 = FILL_AREA_STYLE ('',( #148 ) ) ;
#188 =( NAMED_UNIT ( * ) PLANE_ANGLE_UNIT ( ) SI_UNIT ( $, .RADIAN. ) );
#189 = ORIENTED_EDGE ( 'NONE', *, *, #129, .F. ) ;
#190 = STYLED_ITEM ( 'NONE', ( #199 ), #12 ) ;
#191 =( LENGTH_UNIT ( ) NAMED_UNIT ( * ) SI_UNIT ( .MILLI., .METRE. ) );
#192 = ADVANCED_FACE ( 'NONE', ( #113 ), #127, .T. ) ;
#193 = COLOUR_RGB ( '',0.2509803921568627400, 0.2509803921568627400, 0.2509803921568627400 ) ;
#194 = APPLICATION_PROTOCOL_DEFINITION ( 'draft international standard', 'automotive_design', 1998, #6 ) ;
#195 =( GEOMETRIC_REPRESENTATION_CONTEXT ( 3 ) GLOBAL_UNCERTAINTY_ASSIGNED_CONTEXT ( ( #119 ) ) GLOBAL_UNIT_ASSIGNED_CONTEXT ( ( #33, #173, #156 ) ) REPRESENTATION_CONTEXT ( 'NONE', 'WORKASPACE' ) );
#196 = UNCERTAINTY_MEASURE_WITH_UNIT (LENGTH_MEASURE( 1.000000000000000100E-005 ), #149, 'distance_accuracy_value', 'NONE');
#197 = ADVANCED_FACE ( 'NONE', ( #19 ), #111, .T. ) ;
#198 = DIRECTION ( 'NONE',  ( 1.224646799147354200E-016, 0.0000000000000000000, -1.000000000000000000 ) ) ;
#199 = PRESENTATION_STYLE_ASSIGNMENT (( #153 ) ) ;
#200 = PRESENTATION_LAYER_ASSIGNMENT (  '', '', ( #96 ) ) ;
#201 =( LENGTH_UNIT ( ) NAMED_UNIT ( * ) SI_UNIT ( .MILLI., .METRE. ) );
#202 = ORIENTED_EDGE ( 'NONE', *, *, #178, .T. ) ;
#203 = SURFACE_STYLE_FILL_AREA ( #211 ) ;
#204 = UNCERTAINTY_MEASURE_WITH_UNIT (LENGTH_MEASURE( 1.000000000000000100E-005 ), #98, 'distance_accuracy_value', 'NONE');
#205 = DIRECTION ( 'NONE',  ( -0.0000000000000000000, 1.000000000000000000, -0.0000000000000000000 ) ) ;
#206 =( GEOMETRIC_REPRESENTATION_CONTEXT ( 3 ) GLOBAL_UNCERTAINTY_ASSIGNED_CONTEXT ( ( #204 ) ) GLOBAL_UNIT_ASSIGNED_CONTEXT ( ( #98, #144, #145 ) ) REPRESENTATION_CONTEXT ( 'NONE', 'WORKASPACE' ) );
#207 = PRESENTATION_STYLE_ASSIGNMENT (( #180 ) ) ;
#208 = AXIS2_PLACEMENT_3D ( 'NONE', #26, #73, #198 ) ;
#209 = ORIENTED_EDGE ( 'NONE', *, *, #178, .F. ) ;
#210 = EDGE_LOOP ( 'NONE', ( #209, #59, #170, #189 ) ) ;
#211 = FILL_AREA_STYLE ('',( #105 ) ) ;
#212 = DIRECTION ( 'NONE',  ( 0.0000000000000000000, 0.0000000000000000000, 1.000000000000000000 ) ) ;
#213 = STYLED_ITEM ( 'NONE', ( #32 ), #161 ) ;
#214 =( GEOMETRIC_REPRESENTATION_CONTEXT ( 3 ) GLOBAL_UNCERTAINTY_ASSIGNED_CONTEXT ( ( #132 ) ) GLOBAL_UNIT_ASSIGNED_CONTEXT ( ( #201, #143, #14 ) ) REPRESENTATION_CONTEXT ( 'NONE', 'WORKASPACE' ) );
#215 = MECHANICAL_DESIGN_GEOMETRIC_PRESENTATION_REPRESENTATION (  '', ( #96 ), #206 ) ;
#216 = DIRECTION ( 'NONE',  ( -0.0000000000000000000, 1.000000000000000000, -0.0000000000000000000 ) ) ;
#217 = MECHANICAL_DESIGN_GEOMETRIC_PRESENTATION_REPRESENTATION (  '', ( #89 ), #44 ) ;
#218 = EDGE_LOOP ( 'NONE', ( #142, #175, #136, #49 ) ) ;
ENDSEC;
END-ISO-10303-21;
