ISO-10303-21;
HEADER;
FILE_DESCRIPTION (( 'STEP AP214' ),
    '1' );
FILE_NAME ('Hositrad_KF40R-V.STEP',
    '2017-05-26T08:07:30',
    ( 'Gebruiker' ),
    ( '' ),
    'SwSTEP 2.0',
    'SolidWorks 2017',
    '' );
FILE_SCHEMA (( 'AUTOMOTIVE_DESIGN' ));
ENDSEC;

DATA;
#1 = CIRCLE ( 'NONE', #171, 2.499999999999998700 ) ;
#2 = CIRCLE ( 'NONE', #113, 25.99999999999999600 ) ;
#3 = FILL_AREA_STYLE_COLOUR ( '', #24 ) ;
#4 = DIRECTION ( 'NONE',  ( 1.224646799147352700E-016, 0.0000000000000000000, -1.000000000000000000 ) ) ;
#5 = PRODUCT_DEFINITION ( 'UNKNOWN', '', #203, #191 ) ;
#6 = CIRCLE ( 'NONE', #92, 20.99999999999999600 ) ;
#7 =( LENGTH_UNIT ( ) NAMED_UNIT ( * ) SI_UNIT ( .MILLI., .METRE. ) );
#8 = DIRECTION ( 'NONE',  ( -0.0000000000000000000, 1.000000000000000000, -0.0000000000000000000 ) ) ;
#9 = DIRECTION ( 'NONE',  ( 0.0000000000000000000, 0.0000000000000000000, 1.000000000000000000 ) ) ;
#10 = PRESENTATION_LAYER_ASSIGNMENT (  '', '', ( #123 ) ) ;
#11 = SURFACE_STYLE_USAGE ( .BOTH. , #33 ) ;
#12 = UNCERTAINTY_MEASURE_WITH_UNIT (LENGTH_MEASURE( 1.000000000000000100E-005 ), #41, 'distance_accuracy_value', 'NONE');
#13 = CIRCLE ( 'NONE', #184, 20.99999999999999600 ) ;
#14 = EDGE_CURVE ( 'NONE', #216, #52, #154, .T. ) ;
#15 = CIRCLE ( 'NONE', #211, 25.99999999999999600 ) ;
#16 = SURFACE_STYLE_FILL_AREA ( #129 ) ;
#17 = ORIENTED_EDGE ( 'NONE', *, *, #69, .F. ) ;
#18 = COLOUR_RGB ( '',0.2509803921568627400, 0.2509803921568627400, 0.2509803921568627400 ) ;
#19 = DIRECTION ( 'NONE',  ( 1.224646799147352700E-016, 0.0000000000000000000, -1.000000000000000000 ) ) ;
#20 = ORIENTED_EDGE ( 'NONE', *, *, #188, .F. ) ;
#21 = PRESENTATION_STYLE_ASSIGNMENT (( #130 ) ) ;
#22 = SURFACE_SIDE_STYLE ('',( #78 ) ) ;
#23 = ORIENTED_EDGE ( 'NONE', *, *, #89, .T. ) ;
#24 = COLOUR_RGB ( '',0.2509803921568627400, 0.2509803921568627400, 0.2509803921568627400 ) ;
#25 = ADVANCED_FACE ( 'NONE', ( #54 ), #32, .T. ) ;
#26 = ADVANCED_FACE ( 'NONE', ( #209 ), #65, .T. ) ;
#27 =( NAMED_UNIT ( * ) SI_UNIT ( $, .STERADIAN. ) SOLID_ANGLE_UNIT ( ) );
#28 = VERTEX_POINT ( 'NONE', #82 ) ;
#29 =( NAMED_UNIT ( * ) SI_UNIT ( $, .STERADIAN. ) SOLID_ANGLE_UNIT ( ) );
#30 = DIRECTION ( 'NONE',  ( -1.000000000000000000, 0.0000000000000000000, 0.0000000000000000000 ) ) ;
#31 = PRESENTATION_LAYER_ASSIGNMENT (  '', '', ( #73 ) ) ;
#32 = TOROIDAL_SURFACE ( 'NONE', #117, 23.49999999999999600, 2.499999999999998700 ) ;
#33 = SURFACE_SIDE_STYLE ('',( #60 ) ) ;
#34 = SURFACE_SIDE_STYLE ('',( #160 ) ) ;
#35 = UNCERTAINTY_MEASURE_WITH_UNIT (LENGTH_MEASURE( 1.000000000000000100E-005 ), #97, 'distance_accuracy_value', 'NONE');
#36 = MECHANICAL_DESIGN_GEOMETRIC_PRESENTATION_REPRESENTATION (  '', ( #73 ), #53 ) ;
#37 = DIRECTION ( 'NONE',  ( -0.0000000000000000000, 1.000000000000000000, -0.0000000000000000000 ) ) ;
#38 =( GEOMETRIC_REPRESENTATION_CONTEXT ( 3 ) GLOBAL_UNCERTAINTY_ASSIGNED_CONTEXT ( ( #128 ) ) GLOBAL_UNIT_ASSIGNED_CONTEXT ( ( #43, #98, #205 ) ) REPRESENTATION_CONTEXT ( 'NONE', 'WORKASPACE' ) );
#39 =( GEOMETRIC_REPRESENTATION_CONTEXT ( 3 ) GLOBAL_UNCERTAINTY_ASSIGNED_CONTEXT ( ( #12 ) ) GLOBAL_UNIT_ASSIGNED_CONTEXT ( ( #41, #135, #29 ) ) REPRESENTATION_CONTEXT ( 'NONE', 'WORKASPACE' ) );
#40 =( NAMED_UNIT ( * ) PLANE_ANGLE_UNIT ( ) SI_UNIT ( $, .RADIAN. ) );
#41 =( LENGTH_UNIT ( ) NAMED_UNIT ( * ) SI_UNIT ( .MILLI., .METRE. ) );
#42 =( NAMED_UNIT ( * ) SI_UNIT ( $, .STERADIAN. ) SOLID_ANGLE_UNIT ( ) );
#43 =( LENGTH_UNIT ( ) NAMED_UNIT ( * ) SI_UNIT ( .MILLI., .METRE. ) );
#44 = AXIS2_PLACEMENT_3D ( 'NONE', #187, #37, #86 ) ;
#45 = EDGE_LOOP ( 'NONE', ( #195, #23, #168, #183 ) ) ;
#46 = FILL_AREA_STYLE ('',( #3 ) ) ;
#47 = PRODUCT_RELATED_PRODUCT_CATEGORY ( 'part', '', ( #198 ) ) ;
#48 = AXIS2_PLACEMENT_3D ( 'NONE', #127, #134, #109 ) ;
#49 = COLOUR_RGB ( '',0.2941176470588235400, 0.2941176470588235400, 0.2941176470588235400 ) ;
#50 = EDGE_LOOP ( 'NONE', ( #75, #17, #144, #138 ) ) ;
#51 = SURFACE_STYLE_FILL_AREA ( #95 ) ;
#52 = VERTEX_POINT ( 'NONE', #197 ) ;
#53 =( GEOMETRIC_REPRESENTATION_CONTEXT ( 3 ) GLOBAL_UNCERTAINTY_ASSIGNED_CONTEXT ( ( #35 ) ) GLOBAL_UNIT_ASSIGNED_CONTEXT ( ( #97, #189, #42 ) ) REPRESENTATION_CONTEXT ( 'NONE', 'WORKASPACE' ) );
#54 = FACE_OUTER_BOUND ( 'NONE', #50, .T. ) ;
#55 = COLOUR_RGB ( '',0.2509803921568627400, 0.2509803921568627400, 0.2509803921568627400 ) ;
#56 = TOROIDAL_SURFACE ( 'NONE', #141, 23.49999999999999600, 2.499999999999998700 ) ;
#57 = APPLICATION_PROTOCOL_DEFINITION ( 'draft international standard', 'automotive_design', 1998, #64 ) ;
#58 = SURFACE_SIDE_STYLE ('',( #16 ) ) ;
#59 = ORIENTED_EDGE ( 'NONE', *, *, #14, .F. ) ;
#60 = SURFACE_STYLE_FILL_AREA ( #170 ) ;
#61 = AXIS2_PLACEMENT_3D ( 'NONE', #122, #116, #201 ) ;
#62 = CARTESIAN_POINT ( 'NONE',  ( 0.0000000000000000000, -3.061616997868381700E-016, 0.0000000000000000000 ) ) ;
#63 = FACE_OUTER_BOUND ( 'NONE', #186, .T. ) ;
#64 = APPLICATION_CONTEXT ( 'automotive_design' ) ;
#65 = TOROIDAL_SURFACE ( 'NONE', #48, 23.49999999999999600, 2.499999999999998700 ) ;
#66 = UNCERTAINTY_MEASURE_WITH_UNIT (LENGTH_MEASURE( 1.000000000000000100E-005 ), #143, 'distance_accuracy_value', 'NONE');
#67 = PRESENTATION_LAYER_ASSIGNMENT (  '', '', ( #83 ) ) ;
#68 = VERTEX_POINT ( 'NONE', #101 ) ;
#69 = EDGE_CURVE ( 'NONE', #28, #68, #1, .T. ) ;
#70 = ORIENTED_EDGE ( 'NONE', *, *, #69, .T. ) ;
#71 = AXIS2_PLACEMENT_3D ( 'NONE', #114, #30, #9 ) ;
#72 =( NAMED_UNIT ( * ) SI_UNIT ( $, .STERADIAN. ) SOLID_ANGLE_UNIT ( ) );
#73 = STYLED_ITEM ( 'NONE', ( #132 ), #107 ) ;
#74 = CIRCLE ( 'NONE', #71, 2.499999999999998700 ) ;
#75 = ORIENTED_EDGE ( 'NONE', *, *, #89, .F. ) ;
#76 = CARTESIAN_POINT ( 'NONE',  ( 0.0000000000000000000, -3.061616997868381700E-016, 20.99999999999999600 ) ) ;
#77 = COLOUR_RGB ( '',0.2509803921568627400, 0.2509803921568627400, 0.2509803921568627400 ) ;
#78 = SURFACE_STYLE_FILL_AREA ( #46 ) ;
#79 = FILL_AREA_STYLE_COLOUR ( '', #142 ) ;
#80 = EDGE_CURVE ( 'NONE', #216, #28, #13, .T. ) ;
#81 = PRESENTATION_LAYER_ASSIGNMENT (  '', '', ( #192 ) ) ;
#82 = CARTESIAN_POINT ( 'NONE',  ( 2.571758278209441300E-015, -3.061616997868381700E-016, -20.99999999999999600 ) ) ;
#83 = STYLED_ITEM ( 'NONE', ( #102 ), #202 ) ;
#84 = MECHANICAL_DESIGN_GEOMETRIC_PRESENTATION_REPRESENTATION (  '', ( #83 ), #38 ) ;
#85 = CARTESIAN_POINT ( 'NONE',  ( 0.0000000000000000000, 0.0000000000000000000, 0.0000000000000000000 ) ) ;
#86 = DIRECTION ( 'NONE',  ( 0.0000000000000000000, 0.0000000000000000000, 1.000000000000000000 ) ) ;
#87 = CARTESIAN_POINT ( 'NONE',  ( 0.0000000000000000000, -3.061616997868381700E-016, 0.0000000000000000000 ) ) ;
#88 = EDGE_CURVE ( 'NONE', #52, #68, #15, .T. ) ;
#89 = EDGE_CURVE ( 'NONE', #68, #52, #2, .T. ) ;
#90 = SURFACE_SIDE_STYLE ('',( #185 ) ) ;
#91 =( LENGTH_UNIT ( ) NAMED_UNIT ( * ) SI_UNIT ( .MILLI., .METRE. ) );
#92 = AXIS2_PLACEMENT_3D ( 'NONE', #87, #194, #172 ) ;
#93 = FACE_OUTER_BOUND ( 'NONE', #45, .T. ) ;
#94 =( GEOMETRIC_REPRESENTATION_CONTEXT ( 3 ) GLOBAL_UNCERTAINTY_ASSIGNED_CONTEXT ( ( #118 ) ) GLOBAL_UNIT_ASSIGNED_CONTEXT ( ( #91, #169, #72 ) ) REPRESENTATION_CONTEXT ( 'NONE', 'WORKASPACE' ) );
#95 = FILL_AREA_STYLE ('',( #152 ) ) ;
#96 = SURFACE_SIDE_STYLE ('',( #51 ) ) ;
#97 =( LENGTH_UNIT ( ) NAMED_UNIT ( * ) SI_UNIT ( .MILLI., .METRE. ) );
#98 =( NAMED_UNIT ( * ) PLANE_ANGLE_UNIT ( ) SI_UNIT ( $, .RADIAN. ) );
#99 = AXIS2_PLACEMENT_3D ( 'NONE', #174, #149, #157 ) ;
#100 = FILL_AREA_STYLE_COLOUR ( '', #55 ) ;
#101 = CARTESIAN_POINT ( 'NONE',  ( 3.184081677783117800E-015, 0.0000000000000000000, -25.99999999999999600 ) ) ;
#102 = PRESENTATION_STYLE_ASSIGNMENT (( #199 ) ) ;
#103 =( NAMED_UNIT ( * ) SI_UNIT ( $, .STERADIAN. ) SOLID_ANGLE_UNIT ( ) );
#104 = CARTESIAN_POINT ( 'NONE',  ( 2.877919977996279500E-015, 0.0000000000000000000, -23.49999999999999600 ) ) ;
#105 = DIRECTION ( 'NONE',  ( -0.0000000000000000000, 1.000000000000000000, -0.0000000000000000000 ) ) ;
#106 = EDGE_CURVE ( 'NONE', #28, #216, #6, .T. ) ;
#107 = ADVANCED_BREP_SHAPE_REPRESENTATION ( 'Hositrad_KF40R-V', ( #147, #61 ), #39 ) ;
#108 = DIRECTION ( 'NONE',  ( 1.000000000000000000, 0.0000000000000000000, 1.224646799147353200E-016 ) ) ;
#109 = DIRECTION ( 'NONE',  ( 0.0000000000000000000, 0.0000000000000000000, 1.000000000000000000 ) ) ;
#110 =( GEOMETRIC_REPRESENTATION_CONTEXT ( 3 ) GLOBAL_UNCERTAINTY_ASSIGNED_CONTEXT ( ( #159 ) ) GLOBAL_UNIT_ASSIGNED_CONTEXT ( ( #200, #153, #217 ) ) REPRESENTATION_CONTEXT ( 'NONE', 'WORKASPACE' ) );
#111 = DIRECTION ( 'NONE',  ( -0.0000000000000000000, 1.000000000000000000, -0.0000000000000000000 ) ) ;
#112 = MECHANICAL_DESIGN_GEOMETRIC_PRESENTATION_REPRESENTATION (  '', ( #123 ), #94 ) ;
#113 = AXIS2_PLACEMENT_3D ( 'NONE', #204, #105, #148 ) ;
#114 = CARTESIAN_POINT ( 'NONE',  ( 0.0000000000000000000, 0.0000000000000000000, 23.49999999999999600 ) ) ;
#115 =( GEOMETRIC_REPRESENTATION_CONTEXT ( 3 ) GLOBAL_UNCERTAINTY_ASSIGNED_CONTEXT ( ( #66 ) ) GLOBAL_UNIT_ASSIGNED_CONTEXT ( ( #143, #40, #27 ) ) REPRESENTATION_CONTEXT ( 'NONE', 'WORKASPACE' ) );
#116 = DIRECTION ( 'NONE',  ( 0.0000000000000000000, 0.0000000000000000000, 1.000000000000000000 ) ) ;
#117 = AXIS2_PLACEMENT_3D ( 'NONE', #158, #111, #121 ) ;
#118 = UNCERTAINTY_MEASURE_WITH_UNIT (LENGTH_MEASURE( 1.000000000000000100E-005 ), #91, 'distance_accuracy_value', 'NONE');
#119 = CARTESIAN_POINT ( 'NONE',  ( 0.0000000000000000000, 0.0000000000000000000, 0.0000000000000000000 ) ) ;
#120 = ADVANCED_FACE ( 'NONE', ( #93 ), #56, .T. ) ;
#121 = DIRECTION ( 'NONE',  ( 0.0000000000000000000, 0.0000000000000000000, 1.000000000000000000 ) ) ;
#122 = CARTESIAN_POINT ( 'NONE',  ( 0.0000000000000000000, 0.0000000000000000000, 0.0000000000000000000 ) ) ;
#123 = STYLED_ITEM ( 'NONE', ( #214 ), #26 ) ;
#124 = FILL_AREA_STYLE ('',( #155 ) ) ;
#125 = CARTESIAN_POINT ( 'NONE',  ( 2.877919977996279500E-015, 0.0000000000000000000, -23.49999999999999600 ) ) ;
#126 = STYLED_ITEM ( 'NONE', ( #179 ), #25 ) ;
#127 = CARTESIAN_POINT ( 'NONE',  ( 0.0000000000000000000, 0.0000000000000000000, 0.0000000000000000000 ) ) ;
#128 = UNCERTAINTY_MEASURE_WITH_UNIT (LENGTH_MEASURE( 1.000000000000000100E-005 ), #43, 'distance_accuracy_value', 'NONE');
#129 = FILL_AREA_STYLE ('',( #163 ) ) ;
#130 = SURFACE_STYLE_USAGE ( .BOTH. , #96 ) ;
#131 = ORIENTED_EDGE ( 'NONE', *, *, #80, .T. ) ;
#132 = PRESENTATION_STYLE_ASSIGNMENT (( #167 ) ) ;
#133 = ORIENTED_EDGE ( 'NONE', *, *, #80, .F. ) ;
#134 = DIRECTION ( 'NONE',  ( -0.0000000000000000000, 1.000000000000000000, -0.0000000000000000000 ) ) ;
#135 =( NAMED_UNIT ( * ) PLANE_ANGLE_UNIT ( ) SI_UNIT ( $, .RADIAN. ) );
#136 = DIRECTION ( 'NONE',  ( 0.0000000000000000000, 0.0000000000000000000, 1.000000000000000000 ) ) ;
#137 = SURFACE_STYLE_USAGE ( .BOTH. , #90 ) ;
#138 = ORIENTED_EDGE ( 'NONE', *, *, #14, .T. ) ;
#139 =( GEOMETRIC_REPRESENTATION_CONTEXT ( 3 ) GLOBAL_UNCERTAINTY_ASSIGNED_CONTEXT ( ( #177 ) ) GLOBAL_UNIT_ASSIGNED_CONTEXT ( ( #7, #161, #103 ) ) REPRESENTATION_CONTEXT ( 'NONE', 'WORKASPACE' ) );
#140 = ORIENTED_EDGE ( 'NONE', *, *, #88, .T. ) ;
#141 = AXIS2_PLACEMENT_3D ( 'NONE', #119, #151, #136 ) ;
#142 = COLOUR_RGB ( '',0.2941176470588235400, 0.2941176470588235400, 0.2941176470588235400 ) ;
#143 =( LENGTH_UNIT ( ) NAMED_UNIT ( * ) SI_UNIT ( .MILLI., .METRE. ) );
#144 = ORIENTED_EDGE ( 'NONE', *, *, #106, .T. ) ;
#145 = MECHANICAL_DESIGN_GEOMETRIC_PRESENTATION_REPRESENTATION (  '', ( #192 ), #110 ) ;
#146 = APPLICATION_CONTEXT ( 'automotive_design' ) ;
#147 = MANIFOLD_SOLID_BREP ( 'Revolve1', #180 ) ;
#148 = DIRECTION ( 'NONE',  ( 0.0000000000000000000, 0.0000000000000000000, 1.000000000000000000 ) ) ;
#149 = DIRECTION ( 'NONE',  ( -1.000000000000000000, 0.0000000000000000000, 0.0000000000000000000 ) ) ;
#150 = SURFACE_STYLE_USAGE ( .BOTH. , #34 ) ;
#151 = DIRECTION ( 'NONE',  ( -0.0000000000000000000, 1.000000000000000000, -0.0000000000000000000 ) ) ;
#152 = FILL_AREA_STYLE_COLOUR ( '', #77 ) ;
#153 =( NAMED_UNIT ( * ) PLANE_ANGLE_UNIT ( ) SI_UNIT ( $, .RADIAN. ) );
#154 = CIRCLE ( 'NONE', #99, 2.499999999999998700 ) ;
#155 = FILL_AREA_STYLE_COLOUR ( '', #18 ) ;
#156 = EDGE_CURVE ( 'NONE', #68, #28, #210, .T. ) ;
#157 = DIRECTION ( 'NONE',  ( 0.0000000000000000000, 0.0000000000000000000, 1.000000000000000000 ) ) ;
#158 = CARTESIAN_POINT ( 'NONE',  ( 0.0000000000000000000, 0.0000000000000000000, 0.0000000000000000000 ) ) ;
#159 = UNCERTAINTY_MEASURE_WITH_UNIT (LENGTH_MEASURE( 1.000000000000000100E-005 ), #200, 'distance_accuracy_value', 'NONE');
#160 = SURFACE_STYLE_FILL_AREA ( #173 ) ;
#161 =( NAMED_UNIT ( * ) PLANE_ANGLE_UNIT ( ) SI_UNIT ( $, .RADIAN. ) );
#162 = ORIENTED_EDGE ( 'NONE', *, *, #156, .T. ) ;
#163 = FILL_AREA_STYLE_COLOUR ( '', #49 ) ;
#164 = DIRECTION ( 'NONE',  ( 0.0000000000000000000, 0.0000000000000000000, 1.000000000000000000 ) ) ;
#165 = MECHANICAL_DESIGN_GEOMETRIC_PRESENTATION_REPRESENTATION (  '', ( #207 ), #115 ) ;
#166 = DIRECTION ( 'NONE',  ( 1.000000000000000000, 0.0000000000000000000, 1.224646799147353200E-016 ) ) ;
#167 = SURFACE_STYLE_USAGE ( .BOTH. , #58 ) ;
#168 = ORIENTED_EDGE ( 'NONE', *, *, #188, .T. ) ;
#169 =( NAMED_UNIT ( * ) PLANE_ANGLE_UNIT ( ) SI_UNIT ( $, .RADIAN. ) );
#170 = FILL_AREA_STYLE ('',( #79 ) ) ;
#171 = AXIS2_PLACEMENT_3D ( 'NONE', #104, #108, #19 ) ;
#172 = DIRECTION ( 'NONE',  ( 0.0000000000000000000, 0.0000000000000000000, 1.000000000000000000 ) ) ;
#173 = FILL_AREA_STYLE ('',( #100 ) ) ;
#174 = CARTESIAN_POINT ( 'NONE',  ( 0.0000000000000000000, 0.0000000000000000000, 23.49999999999999600 ) ) ;
#175 = PRESENTATION_LAYER_ASSIGNMENT (  '', '', ( #126 ) ) ;
#176 = PRESENTATION_STYLE_ASSIGNMENT (( #11 ) ) ;
#177 = UNCERTAINTY_MEASURE_WITH_UNIT (LENGTH_MEASURE( 1.000000000000000100E-005 ), #7, 'distance_accuracy_value', 'NONE');
#178 = DIRECTION ( 'NONE',  ( 0.0000000000000000000, 0.0000000000000000000, 1.000000000000000000 ) ) ;
#179 = PRESENTATION_STYLE_ASSIGNMENT (( #150 ) ) ;
#180 = CLOSED_SHELL ( 'NONE', ( #120, #26, #202, #25 ) ) ;
#181 = DIRECTION ( 'NONE',  ( -0.0000000000000000000, 1.000000000000000000, -0.0000000000000000000 ) ) ;
#182 = PRESENTATION_LAYER_ASSIGNMENT (  '', '', ( #207 ) ) ;
#183 = ORIENTED_EDGE ( 'NONE', *, *, #106, .F. ) ;
#184 = AXIS2_PLACEMENT_3D ( 'NONE', #62, #181, #178 ) ;
#185 = SURFACE_STYLE_FILL_AREA ( #124 ) ;
#186 = EDGE_LOOP ( 'NONE', ( #208, #59, #131, #70 ) ) ;
#187 = CARTESIAN_POINT ( 'NONE',  ( 0.0000000000000000000, 0.0000000000000000000, 0.0000000000000000000 ) ) ;
#188 = EDGE_CURVE ( 'NONE', #52, #216, #74, .T. ) ;
#189 =( NAMED_UNIT ( * ) PLANE_ANGLE_UNIT ( ) SI_UNIT ( $, .RADIAN. ) );
#190 = APPLICATION_PROTOCOL_DEFINITION ( 'draft international standard', 'automotive_design', 1998, #146 ) ;
#191 = PRODUCT_DEFINITION_CONTEXT ( 'detailed design', #146, 'design' ) ;
#192 = STYLED_ITEM ( 'NONE', ( #176 ), #147 ) ;
#193 = AXIS2_PLACEMENT_3D ( 'NONE', #125, #166, #4 ) ;
#194 = DIRECTION ( 'NONE',  ( -0.0000000000000000000, 1.000000000000000000, -0.0000000000000000000 ) ) ;
#195 = ORIENTED_EDGE ( 'NONE', *, *, #156, .F. ) ;
#196 = EDGE_LOOP ( 'NONE', ( #20, #140, #162, #133 ) ) ;
#197 = CARTESIAN_POINT ( 'NONE',  ( 0.0000000000000000000, 0.0000000000000000000, 25.99999999999999600 ) ) ;
#198 = PRODUCT ( 'Hositrad_KF40R-V', 'Hositrad_KF40R-V', '', ( #213 ) ) ;
#199 = SURFACE_STYLE_USAGE ( .BOTH. , #22 ) ;
#200 =( LENGTH_UNIT ( ) NAMED_UNIT ( * ) SI_UNIT ( .MILLI., .METRE. ) );
#201 = DIRECTION ( 'NONE',  ( 1.000000000000000000, 0.0000000000000000000, 0.0000000000000000000 ) ) ;
#202 = ADVANCED_FACE ( 'NONE', ( #63 ), #206, .T. ) ;
#203 = PRODUCT_DEFINITION_FORMATION_WITH_SPECIFIED_SOURCE ( 'ANY', '', #198, .NOT_KNOWN. ) ;
#204 = CARTESIAN_POINT ( 'NONE',  ( 0.0000000000000000000, 0.0000000000000000000, 0.0000000000000000000 ) ) ;
#205 =( NAMED_UNIT ( * ) SI_UNIT ( $, .STERADIAN. ) SOLID_ANGLE_UNIT ( ) );
#206 = TOROIDAL_SURFACE ( 'NONE', #44, 23.49999999999999600, 2.499999999999998700 ) ;
#207 = STYLED_ITEM ( 'NONE', ( #21 ), #120 ) ;
#208 = ORIENTED_EDGE ( 'NONE', *, *, #88, .F. ) ;
#209 = FACE_OUTER_BOUND ( 'NONE', #196, .T. ) ;
#210 = CIRCLE ( 'NONE', #193, 2.499999999999998700 ) ;
#211 = AXIS2_PLACEMENT_3D ( 'NONE', #85, #8, #164 ) ;
#212 = SHAPE_DEFINITION_REPRESENTATION ( #215, #107 ) ;
#213 = PRODUCT_CONTEXT ( 'NONE', #64, 'mechanical' ) ;
#214 = PRESENTATION_STYLE_ASSIGNMENT (( #137 ) ) ;
#215 = PRODUCT_DEFINITION_SHAPE ( 'NONE', 'NONE',  #5 ) ;
#216 = VERTEX_POINT ( 'NONE', #76 ) ;
#217 =( NAMED_UNIT ( * ) SI_UNIT ( $, .STERADIAN. ) SOLID_ANGLE_UNIT ( ) );
#218 = MECHANICAL_DESIGN_GEOMETRIC_PRESENTATION_REPRESENTATION (  '', ( #126 ), #139 ) ;
ENDSEC;
END-ISO-10303-21;
