ISO-10303-21;
HEADER;
FILE_DESCRIPTION (( 'STEP AP214' ),
    '1' );
FILE_NAME ('Hositrad_KF50R-V.STEP',
    '2017-05-26T08:07:53',
    ( 'Gebruiker' ),
    ( '' ),
    'SwSTEP 2.0',
    'SolidWorks 2017',
    '' );
FILE_SCHEMA (( 'AUTOMOTIVE_DESIGN' ));
ENDSEC;

DATA;
#1 = EDGE_LOOP ( 'NONE', ( #19, #2, #82, #118 ) ) ;
#2 = ORIENTED_EDGE ( 'NONE', *, *, #46, .T. ) ;
#3 =( NAMED_UNIT ( * ) PLANE_ANGLE_UNIT ( ) SI_UNIT ( $, .RADIAN. ) );
#4 = DIRECTION ( 'NONE',  ( 0.0000000000000000000, 0.0000000000000000000, 1.000000000000000000 ) ) ;
#5 = DIRECTION ( 'NONE',  ( 1.000000000000000000, 0.0000000000000000000, 1.224646799147353200E-016 ) ) ;
#6 =( NAMED_UNIT ( * ) SI_UNIT ( $, .STERADIAN. ) SOLID_ANGLE_UNIT ( ) );
#7 = AXIS2_PLACEMENT_3D ( 'NONE', #159, #150, #96 ) ;
#8 = FILL_AREA_STYLE ('',( #166 ) ) ;
#9 = ORIENTED_EDGE ( 'NONE', *, *, #32, .T. ) ;
#10 = SURFACE_STYLE_USAGE ( .BOTH. , #162 ) ;
#11 = DIRECTION ( 'NONE',  ( 0.0000000000000000000, 0.0000000000000000000, 1.000000000000000000 ) ) ;
#12 =( LENGTH_UNIT ( ) NAMED_UNIT ( * ) SI_UNIT ( .MILLI., .METRE. ) );
#13 = SURFACE_STYLE_USAGE ( .BOTH. , #201 ) ;
#14 = SURFACE_STYLE_USAGE ( .BOTH. , #110 ) ;
#15 = FILL_AREA_STYLE_COLOUR ( '', #163 ) ;
#16 = SURFACE_STYLE_FILL_AREA ( #120 ) ;
#17 = VERTEX_POINT ( 'NONE', #123 ) ;
#18 = VERTEX_POINT ( 'NONE', #86 ) ;
#19 = ORIENTED_EDGE ( 'NONE', *, *, #32, .F. ) ;
#20 = ORIENTED_EDGE ( 'NONE', *, *, #203, .T. ) ;
#21 = DIRECTION ( 'NONE',  ( -0.0000000000000000000, 1.000000000000000000, -0.0000000000000000000 ) ) ;
#22 = ORIENTED_EDGE ( 'NONE', *, *, #46, .F. ) ;
#23 = CARTESIAN_POINT ( 'NONE',  ( 0.0000000000000000000, 0.0000000000000000000, 0.0000000000000000000 ) ) ;
#24 = EDGE_LOOP ( 'NONE', ( #38, #31, #9, #67 ) ) ;
#25 = CIRCLE ( 'NONE', #71, 2.665000000000004000 ) ;
#26 = STYLED_ITEM ( 'NONE', ( #99 ), #180 ) ;
#27 =( NAMED_UNIT ( * ) PLANE_ANGLE_UNIT ( ) SI_UNIT ( $, .RADIAN. ) );
#28 = EDGE_CURVE ( 'NONE', #17, #18, #37, .T. ) ;
#29 = COLOUR_RGB ( '',0.0000000000000000000, 0.0000000000000000000, 0.0000000000000000000 ) ;
#30 = AXIS2_PLACEMENT_3D ( 'NONE', #98, #176, #132 ) ;
#31 = ORIENTED_EDGE ( 'NONE', *, *, #44, .T. ) ;
#32 = EDGE_CURVE ( 'NONE', #72, #103, #25, .T. ) ;
#33 = CARTESIAN_POINT ( 'NONE',  ( 3.266133013325990200E-015, -3.263683719727700000E-016, -26.66999999999999500 ) ) ;
#34 = PRESENTATION_STYLE_ASSIGNMENT (( #10 ) ) ;
#35 = CARTESIAN_POINT ( 'NONE',  ( 0.0000000000000000000, 0.0000000000000000000, 29.33499999999999700 ) ) ;
#36 = MECHANICAL_DESIGN_GEOMETRIC_PRESENTATION_REPRESENTATION (  '', ( #60 ), #109 ) ;
#37 = CIRCLE ( 'NONE', #42, 2.665000000000004000 ) ;
#38 = ORIENTED_EDGE ( 'NONE', *, *, #39, .F. ) ;
#39 = EDGE_CURVE ( 'NONE', #18, #17, #142, .T. ) ;
#40 = FILL_AREA_STYLE ('',( #15 ) ) ;
#41 = ORIENTED_EDGE ( 'NONE', *, *, #28, .T. ) ;
#42 = AXIS2_PLACEMENT_3D ( 'NONE', #35, #88, #59 ) ;
#43 = AXIS2_PLACEMENT_3D ( 'NONE', #58, #138, #125 ) ;
#44 = EDGE_CURVE ( 'NONE', #18, #72, #213, .T. ) ;
#45 = MECHANICAL_DESIGN_GEOMETRIC_PRESENTATION_REPRESENTATION (  '', ( #66 ), #89 ) ;
#46 = EDGE_CURVE ( 'NONE', #72, #18, #92, .T. ) ;
#47 = EDGE_CURVE ( 'NONE', #103, #72, #116, .T. ) ;
#48 = PRESENTATION_LAYER_ASSIGNMENT (  '', '', ( #60 ) ) ;
#49 = AXIS2_PLACEMENT_3D ( 'NONE', #202, #5, #164 ) ;
#50 = AXIS2_PLACEMENT_3D ( 'NONE', #158, #21, #57 ) ;
#51 = UNCERTAINTY_MEASURE_WITH_UNIT (LENGTH_MEASURE( 1.000000000000000100E-005 ), #12, 'distance_accuracy_value', 'NONE');
#52 = SURFACE_STYLE_FILL_AREA ( #146 ) ;
#53 = MECHANICAL_DESIGN_GEOMETRIC_PRESENTATION_REPRESENTATION (  '', ( #218 ), #70 ) ;
#54 = PRESENTATION_STYLE_ASSIGNMENT (( #128 ) ) ;
#55 = CARTESIAN_POINT ( 'NONE',  ( 3.918869757271530300E-015, 0.0000000000000000000, -32.00000000000000000 ) ) ;
#56 =( GEOMETRIC_REPRESENTATION_CONTEXT ( 3 ) GLOBAL_UNCERTAINTY_ASSIGNED_CONTEXT ( ( #111 ) ) GLOBAL_UNIT_ASSIGNED_CONTEXT ( ( #124, #211, #137 ) ) REPRESENTATION_CONTEXT ( 'NONE', 'WORKASPACE' ) );
#57 = DIRECTION ( 'NONE',  ( 0.0000000000000000000, 0.0000000000000000000, 1.000000000000000000 ) ) ;
#58 = CARTESIAN_POINT ( 'NONE',  ( 0.0000000000000000000, 0.0000000000000000000, 0.0000000000000000000 ) ) ;
#59 = DIRECTION ( 'NONE',  ( 0.0000000000000000000, 0.0000000000000000000, 1.000000000000000000 ) ) ;
#60 = STYLED_ITEM ( 'NONE', ( #217 ), #197 ) ;
#61 =( LENGTH_UNIT ( ) NAMED_UNIT ( * ) SI_UNIT ( .MILLI., .METRE. ) );
#62 = AXIS2_PLACEMENT_3D ( 'NONE', #23, #148, #121 ) ;
#63 = PRESENTATION_LAYER_ASSIGNMENT (  '', '', ( #218 ) ) ;
#64 = PRODUCT_CONTEXT ( 'NONE', #172, 'mechanical' ) ;
#65 = MECHANICAL_DESIGN_GEOMETRIC_PRESENTATION_REPRESENTATION (  '', ( #79 ), #85 ) ;
#66 = STYLED_ITEM ( 'NONE', ( #160 ), #171 ) ;
#67 = ORIENTED_EDGE ( 'NONE', *, *, #203, .F. ) ;
#68 = FILL_AREA_STYLE ('',( #191 ) ) ;
#69 = AXIS2_PLACEMENT_3D ( 'NONE', #168, #126, #151 ) ;
#70 =( GEOMETRIC_REPRESENTATION_CONTEXT ( 3 ) GLOBAL_UNCERTAINTY_ASSIGNED_CONTEXT ( ( #175 ) ) GLOBAL_UNIT_ASSIGNED_CONTEXT ( ( #192, #177, #147 ) ) REPRESENTATION_CONTEXT ( 'NONE', 'WORKASPACE' ) );
#71 = AXIS2_PLACEMENT_3D ( 'NONE', #190, #105, #169 ) ;
#72 = VERTEX_POINT ( 'NONE', #55 ) ;
#73 = AXIS2_PLACEMENT_3D ( 'NONE', #208, #133, #87 ) ;
#74 = UNCERTAINTY_MEASURE_WITH_UNIT (LENGTH_MEASURE( 1.000000000000000100E-005 ), #108, 'distance_accuracy_value', 'NONE');
#75 = FACE_OUTER_BOUND ( 'NONE', #24, .T. ) ;
#76 = PRESENTATION_STYLE_ASSIGNMENT (( #14 ) ) ;
#77 = PRESENTATION_LAYER_ASSIGNMENT (  '', '', ( #66 ) ) ;
#78 = PRESENTATION_LAYER_ASSIGNMENT (  '', '', ( #79 ) ) ;
#79 = STYLED_ITEM ( 'NONE', ( #76 ), #209 ) ;
#80 = UNCERTAINTY_MEASURE_WITH_UNIT (LENGTH_MEASURE( 1.000000000000000100E-005 ), #139, 'distance_accuracy_value', 'NONE');
#81 = AXIS2_PLACEMENT_3D ( 'NONE', #179, #196, #11 ) ;
#82 = ORIENTED_EDGE ( 'NONE', *, *, #39, .T. ) ;
#83 = DIRECTION ( 'NONE',  ( 0.0000000000000000000, 0.0000000000000000000, 1.000000000000000000 ) ) ;
#84 = PRODUCT ( 'Hositrad_KF50R-V', 'Hositrad_KF50R-V', '', ( #64 ) ) ;
#85 =( GEOMETRIC_REPRESENTATION_CONTEXT ( 3 ) GLOBAL_UNCERTAINTY_ASSIGNED_CONTEXT ( ( #51 ) ) GLOBAL_UNIT_ASSIGNED_CONTEXT ( ( #12, #3, #6 ) ) REPRESENTATION_CONTEXT ( 'NONE', 'WORKASPACE' ) );
#86 = CARTESIAN_POINT ( 'NONE',  ( 0.0000000000000000000, 0.0000000000000000000, 32.00000000000000000 ) ) ;
#87 = DIRECTION ( 'NONE',  ( 0.0000000000000000000, 0.0000000000000000000, 1.000000000000000000 ) ) ;
#88 = DIRECTION ( 'NONE',  ( -1.000000000000000000, 0.0000000000000000000, 0.0000000000000000000 ) ) ;
#89 =( GEOMETRIC_REPRESENTATION_CONTEXT ( 3 ) GLOBAL_UNCERTAINTY_ASSIGNED_CONTEXT ( ( #80 ) ) GLOBAL_UNIT_ASSIGNED_CONTEXT ( ( #139, #212, #112 ) ) REPRESENTATION_CONTEXT ( 'NONE', 'WORKASPACE' ) );
#90 = SURFACE_SIDE_STYLE ('',( #95 ) ) ;
#91 = FILL_AREA_STYLE_COLOUR ( '', #113 ) ;
#92 = CIRCLE ( 'NONE', #50, 32.00000000000000000 ) ;
#93 = CARTESIAN_POINT ( 'NONE',  ( 0.0000000000000000000, 0.0000000000000000000, 0.0000000000000000000 ) ) ;
#94 = DIRECTION ( 'NONE',  ( -0.0000000000000000000, 1.000000000000000000, -0.0000000000000000000 ) ) ;
#95 = SURFACE_STYLE_FILL_AREA ( #40 ) ;
#96 = DIRECTION ( 'NONE',  ( 0.0000000000000000000, 0.0000000000000000000, 1.000000000000000000 ) ) ;
#97 =( NAMED_UNIT ( * ) PLANE_ANGLE_UNIT ( ) SI_UNIT ( $, .RADIAN. ) );
#98 = CARTESIAN_POINT ( 'NONE',  ( 0.0000000000000000000, 0.0000000000000000000, 29.33499999999999700 ) ) ;
#99 = PRESENTATION_STYLE_ASSIGNMENT (( #134 ) ) ;
#100 = PRODUCT_RELATED_PRODUCT_CATEGORY ( 'part', '', ( #84 ) ) ;
#101 = PRODUCT_DEFINITION_FORMATION_WITH_SPECIFIED_SOURCE ( 'ANY', '', #84, .NOT_KNOWN. ) ;
#102 = PRODUCT_DEFINITION ( 'UNKNOWN', '', #101, #122 ) ;
#103 = VERTEX_POINT ( 'NONE', #33 ) ;
#104 = FACE_OUTER_BOUND ( 'NONE', #1, .T. ) ;
#105 = DIRECTION ( 'NONE',  ( 1.000000000000000000, 0.0000000000000000000, 1.224646799147353200E-016 ) ) ;
#106 = FILL_AREA_STYLE_COLOUR ( '', #216 ) ;
#107 = SURFACE_STYLE_FILL_AREA ( #68 ) ;
#108 =( LENGTH_UNIT ( ) NAMED_UNIT ( * ) SI_UNIT ( .MILLI., .METRE. ) );
#109 =( GEOMETRIC_REPRESENTATION_CONTEXT ( 3 ) GLOBAL_UNCERTAINTY_ASSIGNED_CONTEXT ( ( #74 ) ) GLOBAL_UNIT_ASSIGNED_CONTEXT ( ( #108, #97, #185 ) ) REPRESENTATION_CONTEXT ( 'NONE', 'WORKASPACE' ) );
#110 = SURFACE_SIDE_STYLE ('',( #117 ) ) ;
#111 = UNCERTAINTY_MEASURE_WITH_UNIT (LENGTH_MEASURE( 1.000000000000000100E-005 ), #124, 'distance_accuracy_value', 'NONE');
#112 =( NAMED_UNIT ( * ) SI_UNIT ( $, .STERADIAN. ) SOLID_ANGLE_UNIT ( ) );
#113 = COLOUR_RGB ( '',0.2509803921568627400, 0.2509803921568627400, 0.2509803921568627400 ) ;
#114 = FACE_OUTER_BOUND ( 'NONE', #144, .T. ) ;
#115 = SURFACE_STYLE_USAGE ( .BOTH. , #90 ) ;
#116 = CIRCLE ( 'NONE', #49, 2.665000000000004000 ) ;
#117 = SURFACE_STYLE_FILL_AREA ( #170 ) ;
#118 = ORIENTED_EDGE ( 'NONE', *, *, #210, .F. ) ;
#119 = ORIENTED_EDGE ( 'NONE', *, *, #47, .T. ) ;
#120 = FILL_AREA_STYLE ('',( #207 ) ) ;
#121 = DIRECTION ( 'NONE',  ( 0.0000000000000000000, 0.0000000000000000000, 1.000000000000000000 ) ) ;
#122 = PRODUCT_DEFINITION_CONTEXT ( 'detailed design', #155, 'design' ) ;
#123 = CARTESIAN_POINT ( 'NONE',  ( 0.0000000000000000000, -3.263683719727700000E-016, 26.66999999999999500 ) ) ;
#124 =( LENGTH_UNIT ( ) NAMED_UNIT ( * ) SI_UNIT ( .MILLI., .METRE. ) );
#125 = DIRECTION ( 'NONE',  ( 0.0000000000000000000, 0.0000000000000000000, 1.000000000000000000 ) ) ;
#126 = DIRECTION ( 'NONE',  ( 0.0000000000000000000, 0.0000000000000000000, 1.000000000000000000 ) ) ;
#127 = MECHANICAL_DESIGN_GEOMETRIC_PRESENTATION_REPRESENTATION (  '', ( #26 ), #157 ) ;
#128 = SURFACE_STYLE_USAGE ( .BOTH. , #181 ) ;
#129 = ORIENTED_EDGE ( 'NONE', *, *, #44, .F. ) ;
#130 = COLOUR_RGB ( '',0.2509803921568627400, 0.2509803921568627400, 0.2509803921568627400 ) ;
#131 = TOROIDAL_SURFACE ( 'NONE', #200, 29.33499999999999700, 2.665000000000001800 ) ;
#132 = DIRECTION ( 'NONE',  ( 0.0000000000000000000, 0.0000000000000000000, 1.000000000000000000 ) ) ;
#133 = DIRECTION ( 'NONE',  ( -0.0000000000000000000, 1.000000000000000000, -0.0000000000000000000 ) ) ;
#134 = SURFACE_STYLE_USAGE ( .BOTH. , #205 ) ;
#135 = TOROIDAL_SURFACE ( 'NONE', #62, 29.33499999999999700, 2.665000000000001800 ) ;
#136 = TOROIDAL_SURFACE ( 'NONE', #73, 29.33499999999999700, 2.665000000000001800 ) ;
#137 =( NAMED_UNIT ( * ) SI_UNIT ( $, .STERADIAN. ) SOLID_ANGLE_UNIT ( ) );
#138 = DIRECTION ( 'NONE',  ( -0.0000000000000000000, 1.000000000000000000, -0.0000000000000000000 ) ) ;
#139 =( LENGTH_UNIT ( ) NAMED_UNIT ( * ) SI_UNIT ( .MILLI., .METRE. ) );
#140 = SURFACE_STYLE_FILL_AREA ( #8 ) ;
#141 = FACE_OUTER_BOUND ( 'NONE', #165, .T. ) ;
#142 = CIRCLE ( 'NONE', #30, 2.665000000000004000 ) ;
#143 = UNCERTAINTY_MEASURE_WITH_UNIT (LENGTH_MEASURE( 1.000000000000000100E-005 ), #61, 'distance_accuracy_value', 'NONE');
#144 = EDGE_LOOP ( 'NONE', ( #22, #156, #152, #41 ) ) ;
#145 = APPLICATION_PROTOCOL_DEFINITION ( 'draft international standard', 'automotive_design', 1998, #172 ) ;
#146 = FILL_AREA_STYLE ('',( #106 ) ) ;
#147 =( NAMED_UNIT ( * ) SI_UNIT ( $, .STERADIAN. ) SOLID_ANGLE_UNIT ( ) );
#148 = DIRECTION ( 'NONE',  ( -0.0000000000000000000, 1.000000000000000000, -0.0000000000000000000 ) ) ;
#149 =( LENGTH_UNIT ( ) NAMED_UNIT ( * ) SI_UNIT ( .MILLI., .METRE. ) );
#150 = DIRECTION ( 'NONE',  ( -0.0000000000000000000, 1.000000000000000000, -0.0000000000000000000 ) ) ;
#151 = DIRECTION ( 'NONE',  ( 1.000000000000000000, 0.0000000000000000000, 0.0000000000000000000 ) ) ;
#152 = ORIENTED_EDGE ( 'NONE', *, *, #210, .T. ) ;
#153 = APPLICATION_PROTOCOL_DEFINITION ( 'draft international standard', 'automotive_design', 1998, #155 ) ;
#154 = CIRCLE ( 'NONE', #7, 26.66999999999999500 ) ;
#155 = APPLICATION_CONTEXT ( 'automotive_design' ) ;
#156 = ORIENTED_EDGE ( 'NONE', *, *, #47, .F. ) ;
#157 =( GEOMETRIC_REPRESENTATION_CONTEXT ( 3 ) GLOBAL_UNCERTAINTY_ASSIGNED_CONTEXT ( ( #143 ) ) GLOBAL_UNIT_ASSIGNED_CONTEXT ( ( #61, #27, #161 ) ) REPRESENTATION_CONTEXT ( 'NONE', 'WORKASPACE' ) );
#158 = CARTESIAN_POINT ( 'NONE',  ( 0.0000000000000000000, 0.0000000000000000000, 0.0000000000000000000 ) ) ;
#159 = CARTESIAN_POINT ( 'NONE',  ( 0.0000000000000000000, -3.263683719727698600E-016, 0.0000000000000000000 ) ) ;
#160 = PRESENTATION_STYLE_ASSIGNMENT (( #13 ) ) ;
#161 =( NAMED_UNIT ( * ) SI_UNIT ( $, .STERADIAN. ) SOLID_ANGLE_UNIT ( ) );
#162 = SURFACE_SIDE_STYLE ('',( #107 ) ) ;
#163 = COLOUR_RGB ( '',0.0000000000000000000, 0.0000000000000000000, 0.0000000000000000000 ) ;
#164 = DIRECTION ( 'NONE',  ( 1.224646799147353000E-016, 0.0000000000000000000, -1.000000000000000000 ) ) ;
#165 = EDGE_LOOP ( 'NONE', ( #129, #182, #20, #119 ) ) ;
#166 = FILL_AREA_STYLE_COLOUR ( '', #186 ) ;
#167 =( GEOMETRIC_REPRESENTATION_CONTEXT ( 3 ) GLOBAL_UNCERTAINTY_ASSIGNED_CONTEXT ( ( #183 ) ) GLOBAL_UNIT_ASSIGNED_CONTEXT ( ( #149, #193, #178 ) ) REPRESENTATION_CONTEXT ( 'NONE', 'WORKASPACE' ) );
#168 = CARTESIAN_POINT ( 'NONE',  ( 0.0000000000000000000, 0.0000000000000000000, 0.0000000000000000000 ) ) ;
#169 = DIRECTION ( 'NONE',  ( 1.224646799147353000E-016, 0.0000000000000000000, -1.000000000000000000 ) ) ;
#170 = FILL_AREA_STYLE ('',( #91 ) ) ;
#171 = ADVANCED_FACE ( 'NONE', ( #75 ), #131, .T. ) ;
#172 = APPLICATION_CONTEXT ( 'automotive_design' ) ;
#173 = MANIFOLD_SOLID_BREP ( 'Revolve1', #184 ) ;
#174 = DIRECTION ( 'NONE',  ( -0.0000000000000000000, 1.000000000000000000, -0.0000000000000000000 ) ) ;
#175 = UNCERTAINTY_MEASURE_WITH_UNIT (LENGTH_MEASURE( 1.000000000000000100E-005 ), #192, 'distance_accuracy_value', 'NONE');
#176 = DIRECTION ( 'NONE',  ( -1.000000000000000000, 0.0000000000000000000, 0.0000000000000000000 ) ) ;
#177 =( NAMED_UNIT ( * ) PLANE_ANGLE_UNIT ( ) SI_UNIT ( $, .RADIAN. ) );
#178 =( NAMED_UNIT ( * ) SI_UNIT ( $, .STERADIAN. ) SOLID_ANGLE_UNIT ( ) );
#179 = CARTESIAN_POINT ( 'NONE',  ( 0.0000000000000000000, -3.263683719727698600E-016, 0.0000000000000000000 ) ) ;
#180 = ADVANCED_FACE ( 'NONE', ( #104 ), #135, .T. ) ;
#181 = SURFACE_SIDE_STYLE ('',( #16 ) ) ;
#182 = ORIENTED_EDGE ( 'NONE', *, *, #28, .F. ) ;
#183 = UNCERTAINTY_MEASURE_WITH_UNIT (LENGTH_MEASURE( 1.000000000000000100E-005 ), #149, 'distance_accuracy_value', 'NONE');
#184 = CLOSED_SHELL ( 'NONE', ( #180, #171, #195, #209 ) ) ;
#185 =( NAMED_UNIT ( * ) SI_UNIT ( $, .STERADIAN. ) SOLID_ANGLE_UNIT ( ) );
#186 = COLOUR_RGB ( '',0.2509803921568627400, 0.2509803921568627400, 0.2509803921568627400 ) ;
#187 = STYLED_ITEM ( 'NONE', ( #34 ), #173 ) ;
#188 = CARTESIAN_POINT ( 'NONE',  ( 0.0000000000000000000, 0.0000000000000000000, 0.0000000000000000000 ) ) ;
#189 = TOROIDAL_SURFACE ( 'NONE', #43, 29.33499999999999700, 2.665000000000001800 ) ;
#190 = CARTESIAN_POINT ( 'NONE',  ( 3.592501385298760200E-015, 0.0000000000000000000, -29.33499999999999700 ) ) ;
#191 = FILL_AREA_STYLE_COLOUR ( '', #29 ) ;
#192 =( LENGTH_UNIT ( ) NAMED_UNIT ( * ) SI_UNIT ( .MILLI., .METRE. ) );
#193 =( NAMED_UNIT ( * ) PLANE_ANGLE_UNIT ( ) SI_UNIT ( $, .RADIAN. ) );
#194 = CIRCLE ( 'NONE', #81, 26.66999999999999500 ) ;
#195 = ADVANCED_FACE ( 'NONE', ( #141 ), #136, .T. ) ;
#196 = DIRECTION ( 'NONE',  ( -0.0000000000000000000, 1.000000000000000000, -0.0000000000000000000 ) ) ;
#197 = ADVANCED_BREP_SHAPE_REPRESENTATION ( 'Hositrad_KF50R-V', ( #173, #69 ), #56 ) ;
#198 = AXIS2_PLACEMENT_3D ( 'NONE', #188, #174, #83 ) ;
#199 = PRESENTATION_LAYER_ASSIGNMENT (  '', '', ( #187 ) ) ;
#200 = AXIS2_PLACEMENT_3D ( 'NONE', #93, #94, #4 ) ;
#201 = SURFACE_SIDE_STYLE ('',( #52 ) ) ;
#202 = CARTESIAN_POINT ( 'NONE',  ( 3.592501385298760200E-015, 0.0000000000000000000, -29.33499999999999700 ) ) ;
#203 = EDGE_CURVE ( 'NONE', #17, #103, #154, .T. ) ;
#204 = MECHANICAL_DESIGN_GEOMETRIC_PRESENTATION_REPRESENTATION (  '', ( #187 ), #167 ) ;
#205 = SURFACE_SIDE_STYLE ('',( #140 ) ) ;
#206 = PRESENTATION_LAYER_ASSIGNMENT (  '', '', ( #26 ) ) ;
#207 = FILL_AREA_STYLE_COLOUR ( '', #130 ) ;
#208 = CARTESIAN_POINT ( 'NONE',  ( 0.0000000000000000000, 0.0000000000000000000, 0.0000000000000000000 ) ) ;
#209 = ADVANCED_FACE ( 'NONE', ( #114 ), #189, .T. ) ;
#210 = EDGE_CURVE ( 'NONE', #103, #17, #194, .T. ) ;
#211 =( NAMED_UNIT ( * ) PLANE_ANGLE_UNIT ( ) SI_UNIT ( $, .RADIAN. ) );
#212 =( NAMED_UNIT ( * ) PLANE_ANGLE_UNIT ( ) SI_UNIT ( $, .RADIAN. ) );
#213 = CIRCLE ( 'NONE', #198, 32.00000000000000000 ) ;
#214 = PRODUCT_DEFINITION_SHAPE ( 'NONE', 'NONE',  #102 ) ;
#215 = SHAPE_DEFINITION_REPRESENTATION ( #214, #197 ) ;
#216 = COLOUR_RGB ( '',0.2509803921568627400, 0.2509803921568627400, 0.2509803921568627400 ) ;
#217 = PRESENTATION_STYLE_ASSIGNMENT (( #115 ) ) ;
#218 = STYLED_ITEM ( 'NONE', ( #54 ), #195 ) ;
ENDSEC;
END-ISO-10303-21;
