ISO-10303-21;
HEADER;
FILE_DESCRIPTION (( 'STEP AP214' ),
    '1' );
FILE_NAME ('Hositrad_CG150.STEP',
    '2012-07-05T14:54:24',
    ( '' ),
    ( '' ),
    'SwSTEP 2.0',
    'SolidWorks 2012',
    '' );
FILE_SCHEMA (( 'AUTOMOTIVE_DESIGN' ));
ENDSEC;

DATA;
#1 = EDGE_CURVE ( 'NONE', #146, #143, #182, .T. ) ;
#2 = EDGE_CURVE ( 'NONE', #141, #185, #181, .T. ) ;
#3 = EDGE_CURVE ( 'NONE', #141, #140, #165, .T. ) ;
#4 = EDGE_CURVE ( 'NONE', #140, #166, #158, .T. ) ;
#5 = EDGE_CURVE ( 'NONE', #185, #166, #179, .T. ) ;
#6 = EDGE_CURVE ( 'NONE', #185, #141, #175, .T. ) ;
#7 = EDGE_CURVE ( 'NONE', #180, #146, #176, .T. ) ;
#8 = EDGE_CURVE ( 'NONE', #166, #140, #137, .T. ) ;
#9 = EDGE_CURVE ( 'NONE', #167, #143, #174, .T. ) ;
#10 = EDGE_CURVE ( 'NONE', #180, #167, #134, .T. ) ;
#11 = EDGE_CURVE ( 'NONE', #146, #180, #154, .T. ) ;
#12 = EDGE_CURVE ( 'NONE', #143, #167, #160, .T. ) ;
#13 = AXIS2_PLACEMENT_3D ( 'NONE', #99, #95, #90 ) ;
#14 = AXIS2_PLACEMENT_3D ( 'NONE', #78, #124, #66 ) ;
#15 = AXIS2_PLACEMENT_3D ( 'NONE', #57, #122, #120 ) ;
#16 = AXIS2_PLACEMENT_3D ( 'NONE', #118, #117, #116 ) ;
#17 = AXIS2_PLACEMENT_3D ( 'NONE', #113, #112, #111 ) ;
#18 = AXIS2_PLACEMENT_3D ( 'NONE', #109, #108, #107 ) ;
#19 = AXIS2_PLACEMENT_3D ( 'NONE', #102, #101, #100 ) ;
#20 = AXIS2_PLACEMENT_3D ( 'NONE', #97, #96, #94 ) ;
#21 = AXIS2_PLACEMENT_3D ( 'NONE', #98, #119, #105 ) ;
#22 = AXIS2_PLACEMENT_3D ( 'NONE', #93, #92, #104 ) ;
#23 = AXIS2_PLACEMENT_3D ( 'NONE', #88, #91, #83 ) ;
#24 = STYLED_ITEM ( 'NONE', ( #139 ), #210 ) ;
#25 = AXIS2_PLACEMENT_3D ( 'NONE', #82, #87, #84 ) ;
#26 = AXIS2_PLACEMENT_3D ( 'NONE', #79, #77, #80 ) ;
#27 = AXIS2_PLACEMENT_3D ( 'NONE', #75, #76, #71 ) ;
#28 = PRESENTATION_LAYER_ASSIGNMENT (  '', '', ( #24 ) ) ;
#29 = MECHANICAL_DESIGN_GEOMETRIC_PRESENTATION_REPRESENTATION (  '', ( #24 ), #30 ) ;
#30 =( GEOMETRIC_REPRESENTATION_CONTEXT ( 3 ) GLOBAL_UNCERTAINTY_ASSIGNED_CONTEXT ( ( #211 ) ) GLOBAL_UNIT_ASSIGNED_CONTEXT ( ( #54, #53, #52 ) ) REPRESENTATION_CONTEXT ( 'NONE', 'WORKASPACE' ) );
#31 =( GEOMETRIC_REPRESENTATION_CONTEXT ( 3 ) GLOBAL_UNCERTAINTY_ASSIGNED_CONTEXT ( ( #214 ) ) GLOBAL_UNIT_ASSIGNED_CONTEXT ( ( #59, #51, #50 ) ) REPRESENTATION_CONTEXT ( 'NONE', 'WORKASPACE' ) );
#32 = STYLED_ITEM ( 'NONE', ( #147 ), #213 ) ;
#33 = PRESENTATION_LAYER_ASSIGNMENT (  '', '', ( #32 ) ) ;
#34 = MECHANICAL_DESIGN_GEOMETRIC_PRESENTATION_REPRESENTATION (  '', ( #32 ), #35 ) ;
#35 =( GEOMETRIC_REPRESENTATION_CONTEXT ( 3 ) GLOBAL_UNCERTAINTY_ASSIGNED_CONTEXT ( ( #212 ) ) GLOBAL_UNIT_ASSIGNED_CONTEXT ( ( #42, #41, #40 ) ) REPRESENTATION_CONTEXT ( 'NONE', 'WORKASPACE' ) );
#36 = AXIS2_PLACEMENT_3D ( 'NONE', #61, #62, #47 ) ;
#37 = PRODUCT_DEFINITION ( 'UNKNOWN', '', #38, #188 ) ;
#38 = PRODUCT_DEFINITION_FORMATION_WITH_SPECIFIED_SOURCE ( 'ANY', '', #125, .NOT_KNOWN. ) ;
#39 = PRODUCT_RELATED_PRODUCT_CATEGORY ( 'part', '', ( #125 ) ) ;
#40 =( NAMED_UNIT ( * ) SI_UNIT ( $, .STERADIAN. ) SOLID_ANGLE_UNIT ( ) );
#41 =( NAMED_UNIT ( * ) PLANE_ANGLE_UNIT ( ) SI_UNIT ( $, .RADIAN. ) );
#42 =( LENGTH_UNIT ( ) NAMED_UNIT ( * ) SI_UNIT ( .MILLI., .METRE. ) );
#43 = SURFACE_STYLE_USAGE ( .BOTH. , #45 ) ;
#44 = PRODUCT_CONTEXT ( 'NONE', #48, 'mechanical' ) ;
#45 = SURFACE_SIDE_STYLE ('',( #153 ) ) ;
#46 = FILL_AREA_STYLE ('',( #64 ) ) ;
#47 = DIRECTION ( 'NONE',  ( 1.000000000000000000, 0.0000000000000000000, 0.0000000000000000000 ) ) ;
#48 = APPLICATION_CONTEXT ( 'automotive_design' ) ;
#49 = APPLICATION_PROTOCOL_DEFINITION ( 'draft international standard', 'automotive_design', 1998, #48 ) ;
#50 =( NAMED_UNIT ( * ) SI_UNIT ( $, .STERADIAN. ) SOLID_ANGLE_UNIT ( ) );
#51 =( NAMED_UNIT ( * ) PLANE_ANGLE_UNIT ( ) SI_UNIT ( $, .RADIAN. ) );
#52 =( NAMED_UNIT ( * ) SI_UNIT ( $, .STERADIAN. ) SOLID_ANGLE_UNIT ( ) );
#53 =( NAMED_UNIT ( * ) PLANE_ANGLE_UNIT ( ) SI_UNIT ( $, .RADIAN. ) );
#54 =( LENGTH_UNIT ( ) NAMED_UNIT ( * ) SI_UNIT ( .MILLI., .METRE. ) );
#55 = SURFACE_STYLE_USAGE ( .BOTH. , #56 ) ;
#56 = SURFACE_SIDE_STYLE ('',( #159 ) ) ;
#57 = CARTESIAN_POINT ( 'NONE',  ( 0.0000000000000000000, 2.000000000000000000, 0.0000000000000000000 ) ) ;
#58 = FILL_AREA_STYLE ('',( #63 ) ) ;
#59 =( LENGTH_UNIT ( ) NAMED_UNIT ( * ) SI_UNIT ( .MILLI., .METRE. ) );
#60 = CARTESIAN_POINT ( 'NONE',  ( 0.0000000000000000000, 2.000000000000000000, -85.59999999999999400 ) ) ;
#61 = CARTESIAN_POINT ( 'NONE',  ( 0.0000000000000000000, 0.0000000000000000000, 0.0000000000000000000 ) ) ;
#62 = DIRECTION ( 'NONE',  ( 0.0000000000000000000, 0.0000000000000000000, 1.000000000000000000 ) ) ;
#63 = FILL_AREA_STYLE_COLOUR ( '', #170 ) ;
#64 = FILL_AREA_STYLE_COLOUR ( '', #169 ) ;
#65 = CARTESIAN_POINT ( 'NONE',  ( 9.337931843498567700E-015, 2.000000000000000000, 76.25000000000000000 ) ) ;
#66 = DIRECTION ( 'NONE',  ( 0.0000000000000000000, 0.0000000000000000000, 1.000000000000000000 ) ) ;
#67 = CARTESIAN_POINT ( 'NONE',  ( 1.048297660070134400E-014, 2.000000000000000000, 85.59999999999999400 ) ) ;
#68 = CARTESIAN_POINT ( 'NONE',  ( 1.048297660070134400E-014, 0.0000000000000000000, 85.59999999999999400 ) ) ;
#69 = CARTESIAN_POINT ( 'NONE',  ( 0.0000000000000000000, 0.0000000000000000000, -85.59999999999999400 ) ) ;
#70 = CARTESIAN_POINT ( 'NONE',  ( 0.0000000000000000000, 2.000000000000000000, -76.25000000000000000 ) ) ;
#71 = DIRECTION ( 'NONE',  ( 0.0000000000000000000, -0.0000000000000000000, 1.000000000000000000 ) ) ;
#72 = CARTESIAN_POINT ( 'NONE',  ( 0.0000000000000000000, 0.0000000000000000000, -76.25000000000000000 ) ) ;
#73 = PLANE ( 'NONE',  #27 ) ;
#74 = CARTESIAN_POINT ( 'NONE',  ( 9.337931843498567700E-015, 0.0000000000000000000, 76.25000000000000000 ) ) ;
#75 = CARTESIAN_POINT ( 'NONE',  ( 0.0000000000000000000, 2.000000000000000000, 0.0000000000000000000 ) ) ;
#76 = DIRECTION ( 'NONE',  ( 0.0000000000000000000, 1.000000000000000000, 0.0000000000000000000 ) ) ;
#77 = DIRECTION ( 'NONE',  ( -0.0000000000000000000, -1.000000000000000000, -0.0000000000000000000 ) ) ;
#78 = CARTESIAN_POINT ( 'NONE',  ( 0.0000000000000000000, 0.0000000000000000000, 0.0000000000000000000 ) ) ;
#79 = CARTESIAN_POINT ( 'NONE',  ( 0.0000000000000000000, 2.000000000000000000, 0.0000000000000000000 ) ) ;
#80 = DIRECTION ( 'NONE',  ( 0.0000000000000000000, 0.0000000000000000000, -1.000000000000000000 ) ) ;
#81 = APPLICATION_PROTOCOL_DEFINITION ( 'draft international standard', 'automotive_design', 1998, #123 ) ;
#82 = CARTESIAN_POINT ( 'NONE',  ( 0.0000000000000000000, 2.000000000000000000, 0.0000000000000000000 ) ) ;
#83 = DIRECTION ( 'NONE',  ( 0.0000000000000000000, -0.0000000000000000000, 1.000000000000000000 ) ) ;
#84 = DIRECTION ( 'NONE',  ( 0.0000000000000000000, 0.0000000000000000000, -1.000000000000000000 ) ) ;
#85 = PLANE ( 'NONE',  #23 ) ;
#86 = CARTESIAN_POINT ( 'NONE',  ( 0.0000000000000000000, 2.000000000000000000, -85.59999999999999400 ) ) ;
#87 = DIRECTION ( 'NONE',  ( -0.0000000000000000000, -1.000000000000000000, -0.0000000000000000000 ) ) ;
#88 = CARTESIAN_POINT ( 'NONE',  ( 0.0000000000000000000, 0.0000000000000000000, 0.0000000000000000000 ) ) ;
#89 = CARTESIAN_POINT ( 'NONE',  ( 0.0000000000000000000, 2.000000000000000000, -76.25000000000000000 ) ) ;
#90 = DIRECTION ( 'NONE',  ( 0.0000000000000000000, 0.0000000000000000000, 1.000000000000000000 ) ) ;
#91 = DIRECTION ( 'NONE',  ( 0.0000000000000000000, 1.000000000000000000, 0.0000000000000000000 ) ) ;
#92 = DIRECTION ( 'NONE',  ( -0.0000000000000000000, -1.000000000000000000, -0.0000000000000000000 ) ) ;
#93 = CARTESIAN_POINT ( 'NONE',  ( 0.0000000000000000000, 2.000000000000000000, 0.0000000000000000000 ) ) ;
#94 = DIRECTION ( 'NONE',  ( 0.0000000000000000000, 0.0000000000000000000, 1.000000000000000000 ) ) ;
#95 = DIRECTION ( 'NONE',  ( 0.0000000000000000000, 1.000000000000000000, 0.0000000000000000000 ) ) ;
#96 = DIRECTION ( 'NONE',  ( 0.0000000000000000000, 1.000000000000000000, 0.0000000000000000000 ) ) ;
#97 = CARTESIAN_POINT ( 'NONE',  ( 0.0000000000000000000, 0.0000000000000000000, 0.0000000000000000000 ) ) ;
#98 = CARTESIAN_POINT ( 'NONE',  ( 0.0000000000000000000, 2.000000000000000000, 0.0000000000000000000 ) ) ;
#99 = CARTESIAN_POINT ( 'NONE',  ( 0.0000000000000000000, 2.000000000000000000, 0.0000000000000000000 ) ) ;
#100 = DIRECTION ( 'NONE',  ( 0.0000000000000000000, 0.0000000000000000000, 1.000000000000000000 ) ) ;
#101 = DIRECTION ( 'NONE',  ( 0.0000000000000000000, 1.000000000000000000, 0.0000000000000000000 ) ) ;
#102 = CARTESIAN_POINT ( 'NONE',  ( 0.0000000000000000000, 2.000000000000000000, 0.0000000000000000000 ) ) ;
#103 = DIRECTION ( 'NONE',  ( -0.0000000000000000000, -1.000000000000000000, -0.0000000000000000000 ) ) ;
#104 = DIRECTION ( 'NONE',  ( 0.0000000000000000000, 0.0000000000000000000, -1.000000000000000000 ) ) ;
#105 = DIRECTION ( 'NONE',  ( 0.0000000000000000000, 0.0000000000000000000, -1.000000000000000000 ) ) ;
#106 = CARTESIAN_POINT ( 'NONE',  ( 1.048297660070134400E-014, 2.000000000000000000, 85.59999999999999400 ) ) ;
#107 = DIRECTION ( 'NONE',  ( 0.0000000000000000000, 0.0000000000000000000, 1.000000000000000000 ) ) ;
#108 = DIRECTION ( 'NONE',  ( 0.0000000000000000000, 1.000000000000000000, 0.0000000000000000000 ) ) ;
#109 = CARTESIAN_POINT ( 'NONE',  ( 0.0000000000000000000, 0.0000000000000000000, 0.0000000000000000000 ) ) ;
#110 = CARTESIAN_POINT ( 'NONE',  ( 9.337931843498567700E-015, 2.000000000000000000, 76.25000000000000000 ) ) ;
#111 = DIRECTION ( 'NONE',  ( 0.0000000000000000000, 0.0000000000000000000, 1.000000000000000000 ) ) ;
#112 = DIRECTION ( 'NONE',  ( 0.0000000000000000000, 1.000000000000000000, 0.0000000000000000000 ) ) ;
#113 = CARTESIAN_POINT ( 'NONE',  ( 0.0000000000000000000, 0.0000000000000000000, 0.0000000000000000000 ) ) ;
#114 = DIRECTION ( 'NONE',  ( -0.0000000000000000000, -1.000000000000000000, -0.0000000000000000000 ) ) ;
#115 = DIRECTION ( 'NONE',  ( -0.0000000000000000000, -1.000000000000000000, -0.0000000000000000000 ) ) ;
#116 = DIRECTION ( 'NONE',  ( 0.0000000000000000000, 0.0000000000000000000, 1.000000000000000000 ) ) ;
#117 = DIRECTION ( 'NONE',  ( 0.0000000000000000000, 1.000000000000000000, 0.0000000000000000000 ) ) ;
#118 = CARTESIAN_POINT ( 'NONE',  ( 0.0000000000000000000, 2.000000000000000000, 0.0000000000000000000 ) ) ;
#119 = DIRECTION ( 'NONE',  ( -0.0000000000000000000, -1.000000000000000000, -0.0000000000000000000 ) ) ;
#120 = DIRECTION ( 'NONE',  ( 0.0000000000000000000, 0.0000000000000000000, 1.000000000000000000 ) ) ;
#121 = DIRECTION ( 'NONE',  ( -0.0000000000000000000, -1.000000000000000000, -0.0000000000000000000 ) ) ;
#122 = DIRECTION ( 'NONE',  ( 0.0000000000000000000, 1.000000000000000000, 0.0000000000000000000 ) ) ;
#123 = APPLICATION_CONTEXT ( 'automotive_design' ) ;
#124 = DIRECTION ( 'NONE',  ( 0.0000000000000000000, 1.000000000000000000, 0.0000000000000000000 ) ) ;
#125 = PRODUCT ( 'Hositrad_CG150', 'Hositrad_CG150', '', ( #44 ) ) ;
#126 = ADVANCED_FACE ( 'NONE', ( #156 ), #145, .T. ) ;
#127 = ADVANCED_FACE ( 'NONE', ( #186 ), #150, .F. ) ;
#128 = ADVANCED_FACE ( 'NONE', ( #183, #171 ), #85, .F. ) ;
#129 = ADVANCED_FACE ( 'NONE', ( #149 ), #142, .F. ) ;
#130 = ADVANCED_FACE ( 'NONE', ( #163 ), #136, .T. ) ;
#131 = ADVANCED_FACE ( 'NONE', ( #138, #177 ), #73, .T. ) ;
#132 = SHAPE_DEFINITION_REPRESENTATION ( #189, #213 ) ;
#133 = ORIENTED_EDGE ( 'NONE', *, *, #10, .T. ) ;
#134 = LINE ( 'NONE', #110, #157 ) ;
#135 = ORIENTED_EDGE ( 'NONE', *, *, #3, .T. ) ;
#136 = CYLINDRICAL_SURFACE ( 'NONE', #26, 85.59999999999999400 ) ;
#137 = CIRCLE ( 'NONE', #17, 85.59999999999999400 ) ;
#138 = FACE_OUTER_BOUND ( 'NONE', #203, .T. ) ;
#139 = PRESENTATION_STYLE_ASSIGNMENT (( #55 ) ) ;
#140 = VERTEX_POINT ( 'NONE', #68 ) ;
#141 = VERTEX_POINT ( 'NONE', #67 ) ;
#142 = CYLINDRICAL_SURFACE ( 'NONE', #25, 76.25000000000000000 ) ;
#143 = VERTEX_POINT ( 'NONE', #72 ) ;
#144 = VECTOR ( 'NONE', #115, 1000.000000000000000 ) ;
#145 = CYLINDRICAL_SURFACE ( 'NONE', #21, 85.59999999999999400 ) ;
#146 = VERTEX_POINT ( 'NONE', #70 ) ;
#147 = PRESENTATION_STYLE_ASSIGNMENT (( #43 ) ) ;
#148 = ORIENTED_EDGE ( 'NONE', *, *, #10, .F. ) ;
#149 = FACE_OUTER_BOUND ( 'NONE', #198, .T. ) ;
#150 = CYLINDRICAL_SURFACE ( 'NONE', #22, 76.25000000000000000 ) ;
#151 = ORIENTED_EDGE ( 'NONE', *, *, #1, .F. ) ;
#152 = ORIENTED_EDGE ( 'NONE', *, *, #8, .T. ) ;
#153 = SURFACE_STYLE_FILL_AREA ( #46 ) ;
#154 = CIRCLE ( 'NONE', #19, 76.25000000000000000 ) ;
#155 = VECTOR ( 'NONE', #121, 1000.000000000000000 ) ;
#156 = FACE_OUTER_BOUND ( 'NONE', #193, .T. ) ;
#157 = VECTOR ( 'NONE', #114, 1000.000000000000000 ) ;
#158 = CIRCLE ( 'NONE', #14, 85.59999999999999400 ) ;
#159 = SURFACE_STYLE_FILL_AREA ( #58 ) ;
#160 = CIRCLE ( 'NONE', #20, 76.25000000000000000 ) ;
#161 = ORIENTED_EDGE ( 'NONE', *, *, #5, .F. ) ;
#162 = ORIENTED_EDGE ( 'NONE', *, *, #7, .T. ) ;
#163 = FACE_OUTER_BOUND ( 'NONE', #194, .T. ) ;
#164 = ORIENTED_EDGE ( 'NONE', *, *, #12, .F. ) ;
#165 = LINE ( 'NONE', #106, #168 ) ;
#166 = VERTEX_POINT ( 'NONE', #69 ) ;
#167 = VERTEX_POINT ( 'NONE', #74 ) ;
#168 = VECTOR ( 'NONE', #103, 1000.000000000000000 ) ;
#169 = COLOUR_RGB ( '',0.5372549019607842900, 0.3490196078431372400, 0.3372549019607843400 ) ;
#170 = COLOUR_RGB ( '',0.9882352941176471000, 0.6274509803921568500, 0.5176470588235293500 ) ;
#171 = FACE_BOUND ( 'NONE', #200, .T. ) ;
#172 = ORIENTED_EDGE ( 'NONE', *, *, #9, .F. ) ;
#173 = ORIENTED_EDGE ( 'NONE', *, *, #2, .F. ) ;
#174 = CIRCLE ( 'NONE', #18, 76.25000000000000000 ) ;
#175 = CIRCLE ( 'NONE', #15, 85.59999999999999400 ) ;
#176 = CIRCLE ( 'NONE', #16, 76.25000000000000000 ) ;
#177 = FACE_BOUND ( 'NONE', #190, .T. ) ;
#178 = ORIENTED_EDGE ( 'NONE', *, *, #11, .T. ) ;
#179 = LINE ( 'NONE', #86, #144 ) ;
#180 = VERTEX_POINT ( 'NONE', #65 ) ;
#181 = CIRCLE ( 'NONE', #13, 85.59999999999999400 ) ;
#182 = LINE ( 'NONE', #89, #155 ) ;
#183 = FACE_OUTER_BOUND ( 'NONE', #206, .T. ) ;
#184 = ORIENTED_EDGE ( 'NONE', *, *, #4, .T. ) ;
#185 = VERTEX_POINT ( 'NONE', #60 ) ;
#186 = FACE_OUTER_BOUND ( 'NONE', #195, .T. ) ;
#187 = ORIENTED_EDGE ( 'NONE', *, *, #1, .T. ) ;
#188 = PRODUCT_DEFINITION_CONTEXT ( 'detailed design', #123, 'design' ) ;
#189 = PRODUCT_DEFINITION_SHAPE ( 'NONE', 'NONE',  #37 ) ;
#190 = EDGE_LOOP ( 'NONE', ( #192, #204 ) ) ;
#191 = ORIENTED_EDGE ( 'NONE', *, *, #4, .F. ) ;
#192 = ORIENTED_EDGE ( 'NONE', *, *, #11, .F. ) ;
#193 = EDGE_LOOP ( 'NONE', ( #173, #135, #184, #161 ) ) ;
#194 = EDGE_LOOP ( 'NONE', ( #205, #201, #196, #152 ) ) ;
#195 = EDGE_LOOP ( 'NONE', ( #148, #162, #187, #172 ) ) ;
#196 = ORIENTED_EDGE ( 'NONE', *, *, #5, .T. ) ;
#197 = CLOSED_SHELL ( 'NONE', ( #129, #126, #131, #128, #130, #127 ) ) ;
#198 = EDGE_LOOP ( 'NONE', ( #178, #133, #164, #151 ) ) ;
#199 = ORIENTED_EDGE ( 'NONE', *, *, #12, .T. ) ;
#200 = EDGE_LOOP ( 'NONE', ( #199, #207 ) ) ;
#201 = ORIENTED_EDGE ( 'NONE', *, *, #6, .F. ) ;
#202 = ORIENTED_EDGE ( 'NONE', *, *, #6, .T. ) ;
#203 = EDGE_LOOP ( 'NONE', ( #202, #209 ) ) ;
#204 = ORIENTED_EDGE ( 'NONE', *, *, #7, .F. ) ;
#205 = ORIENTED_EDGE ( 'NONE', *, *, #3, .F. ) ;
#206 = EDGE_LOOP ( 'NONE', ( #208, #191 ) ) ;
#207 = ORIENTED_EDGE ( 'NONE', *, *, #9, .T. ) ;
#208 = ORIENTED_EDGE ( 'NONE', *, *, #8, .F. ) ;
#209 = ORIENTED_EDGE ( 'NONE', *, *, #2, .T. ) ;
#210 = MANIFOLD_SOLID_BREP ( 'Extrude1', #197 ) ;
#211 = UNCERTAINTY_MEASURE_WITH_UNIT (LENGTH_MEASURE( 1.000000000000000100E-005 ), #54, 'distance_accuracy_value', 'NONE');
#212 = UNCERTAINTY_MEASURE_WITH_UNIT (LENGTH_MEASURE( 1.000000000000000100E-005 ), #42, 'distance_accuracy_value', 'NONE');
#213 = ADVANCED_BREP_SHAPE_REPRESENTATION ( 'Hositrad_CG150', ( #210, #36 ), #31 ) ;
#214 = UNCERTAINTY_MEASURE_WITH_UNIT (LENGTH_MEASURE( 1.000000000000000100E-005 ), #59, 'distance_accuracy_value', 'NONE');
ENDSEC;
END-ISO-10303-21;
