ISO-10303-21;
HEADER;
FILE_DESCRIPTION (( 'STEP AP214' ),
    '1' );
FILE_NAME ('Hositrad_CG250.STEP',
    '2012-07-05T14:57:57',
    ( '' ),
    ( '' ),
    'SwSTEP 2.0',
    'SolidWorks 2012',
    '' );
FILE_SCHEMA (( 'AUTOMOTIVE_DESIGN' ));
ENDSEC;

DATA;
#1 = DIRECTION ( 'NONE',  ( 0.0000000000000000000, 0.0000000000000000000, 1.000000000000000000 ) ) ;
#2 = DIRECTION ( 'NONE',  ( -0.0000000000000000000, -1.000000000000000000, -0.0000000000000000000 ) ) ;
#3 = CARTESIAN_POINT ( 'NONE',  ( 0.0000000000000000000, 2.000000000000000000, 0.0000000000000000000 ) ) ;
#4 = DIRECTION ( 'NONE',  ( 0.0000000000000000000, 1.000000000000000000, 0.0000000000000000000 ) ) ;
#5 = DIRECTION ( 'NONE',  ( 0.0000000000000000000, 0.0000000000000000000, 1.000000000000000000 ) ) ;
#6 = SURFACE_SIDE_STYLE ('',( #104 ) ) ;
#7 = CARTESIAN_POINT ( 'NONE',  ( 0.0000000000000000000, 0.0000000000000000000, 0.0000000000000000000 ) ) ;
#8 = DIRECTION ( 'NONE',  ( 0.0000000000000000000, 1.000000000000000000, 0.0000000000000000000 ) ) ;
#9 = DIRECTION ( 'NONE',  ( 0.0000000000000000000, 0.0000000000000000000, 1.000000000000000000 ) ) ;
#10 = CARTESIAN_POINT ( 'NONE',  ( 0.0000000000000000000, 0.0000000000000000000, 0.0000000000000000000 ) ) ;
#11 = DIRECTION ( 'NONE',  ( 0.0000000000000000000, 1.000000000000000000, 0.0000000000000000000 ) ) ;
#12 = DIRECTION ( 'NONE',  ( 0.0000000000000000000, 0.0000000000000000000, 1.000000000000000000 ) ) ;
#13 = CARTESIAN_POINT ( 'NONE',  ( 1.670418234036989900E-014, 2.000000000000000000, 136.4000000000000100 ) ) ;
#14 = CARTESIAN_POINT ( 'NONE',  ( 1.670418234036989900E-014, 2.000000000000000000, 136.4000000000000100 ) ) ;
#15 = CARTESIAN_POINT ( 'NONE',  ( 0.0000000000000000000, 0.0000000000000000000, 0.0000000000000000000 ) ) ;
#16 = ADVANCED_FACE ( 'NONE', ( #162 ), #182, .F. ) ;
#17 = ADVANCED_FACE ( 'NONE', ( #153, #159 ), #107, .T. ) ;
#18 = ADVANCED_FACE ( 'NONE', ( #135 ), #156, .T. ) ;
#19 = ADVANCED_FACE ( 'NONE', ( #197 ), #192, .F. ) ;
#20 = ADVANCED_FACE ( 'NONE', ( #175, #190 ), #126, .F. ) ;
#21 = ADVANCED_FACE ( 'NONE', ( #183 ), #165, .T. ) ;
#22 = DIRECTION ( 'NONE',  ( 0.0000000000000000000, 1.000000000000000000, 0.0000000000000000000 ) ) ;
#23 = EDGE_CURVE ( 'NONE', #140, #178, #148, .T. ) ;
#24 = AXIS2_PLACEMENT_3D ( 'NONE', #7, #8, #9 ) ;
#25 = AXIS2_PLACEMENT_3D ( 'NONE', #3, #4, #5 ) ;
#26 = AXIS2_PLACEMENT_3D ( 'NONE', #213, #22, #1 ) ;
#27 = EDGE_CURVE ( 'NONE', #177, #161, #157, .T. ) ;
#28 = AXIS2_PLACEMENT_3D ( 'NONE', #129, #125, #127 ) ;
#29 = AXIS2_PLACEMENT_3D ( 'NONE', #206, #207, #208 ) ;
#30 = AXIS2_PLACEMENT_3D ( 'NONE', #124, #123, #128 ) ;
#31 = AXIS2_PLACEMENT_3D ( 'NONE', #121, #122, #118 ) ;
#32 = AXIS2_PLACEMENT_3D ( 'NONE', #117, #119, #120 ) ;
#33 = AXIS2_PLACEMENT_3D ( 'NONE', #210, #211, #212 ) ;
#34 = AXIS2_PLACEMENT_3D ( 'NONE', #114, #115, #116 ) ;
#35 = AXIS2_PLACEMENT_3D ( 'NONE', #214, #102, #101 ) ;
#36 = EDGE_CURVE ( 'NONE', #176, #161, #195, .T. ) ;
#37 = EDGE_CURVE ( 'NONE', #187, #177, #147, .T. ) ;
#38 = EDGE_CURVE ( 'NONE', #177, #187, #130, .T. ) ;
#39 = EDGE_CURVE ( 'NONE', #161, #176, #185, .T. ) ;
#40 = EDGE_CURVE ( 'NONE', #164, #152, #170, .T. ) ;
#41 = EDGE_CURVE ( 'NONE', #152, #164, #146, .T. ) ;
#42 = EDGE_CURVE ( 'NONE', #140, #164, #199, .T. ) ;
#43 = AXIS2_PLACEMENT_3D ( 'NONE', #10, #11, #12 ) ;
#44 = EDGE_CURVE ( 'NONE', #187, #176, #189, .T. ) ;
#45 = EDGE_CURVE ( 'NONE', #178, #152, #180, .T. ) ;
#46 = EDGE_CURVE ( 'NONE', #178, #140, #150, .T. ) ;
#47 = AXIS2_PLACEMENT_3D ( 'NONE', #15, #209, #76 ) ;
#48 = AXIS2_PLACEMENT_3D ( 'NONE', #84, #85, #86 ) ;
#49 = STYLED_ITEM ( 'NONE', ( #154 ), #110 ) ;
#50 = PRESENTATION_LAYER_ASSIGNMENT (  '', '', ( #49 ) ) ;
#51 = MECHANICAL_DESIGN_GEOMETRIC_PRESENTATION_REPRESENTATION (  '', ( #49 ), #52 ) ;
#52 =( GEOMETRIC_REPRESENTATION_CONTEXT ( 3 ) GLOBAL_UNCERTAINTY_ASSIGNED_CONTEXT ( ( #109 ) ) GLOBAL_UNIT_ASSIGNED_CONTEXT ( ( #89, #90, #91 ) ) REPRESENTATION_CONTEXT ( 'NONE', 'WORKASPACE' ) );
#53 =( GEOMETRIC_REPRESENTATION_CONTEXT ( 3 ) GLOBAL_UNCERTAINTY_ASSIGNED_CONTEXT ( ( #113 ) ) GLOBAL_UNIT_ASSIGNED_CONTEXT ( ( #70, #71, #72 ) ) REPRESENTATION_CONTEXT ( 'NONE', 'WORKASPACE' ) );
#54 = STYLED_ITEM ( 'NONE', ( #105 ), #112 ) ;
#55 = PRESENTATION_LAYER_ASSIGNMENT (  '', '', ( #54 ) ) ;
#56 = MECHANICAL_DESIGN_GEOMETRIC_PRESENTATION_REPRESENTATION (  '', ( #54 ), #57 ) ;
#57 =( GEOMETRIC_REPRESENTATION_CONTEXT ( 3 ) GLOBAL_UNCERTAINTY_ASSIGNED_CONTEXT ( ( #111 ) ) GLOBAL_UNIT_ASSIGNED_CONTEXT ( ( #93, #94, #95 ) ) REPRESENTATION_CONTEXT ( 'NONE', 'WORKASPACE' ) );
#58 = AXIS2_PLACEMENT_3D ( 'NONE', #67, #96, #97 ) ;
#59 = PRODUCT_DEFINITION ( 'UNKNOWN', '', #60, #202 ) ;
#60 = PRODUCT_DEFINITION_FORMATION_WITH_SPECIFIED_SOURCE ( 'ANY', '', #108, .NOT_KNOWN. ) ;
#61 = PRODUCT_RELATED_PRODUCT_CATEGORY ( 'part', '', ( #108 ) ) ;
#62 = CARTESIAN_POINT ( 'NONE',  ( 0.0000000000000000000, 2.000000000000000000, -127.0000000000000000 ) ) ;
#63 = CARTESIAN_POINT ( 'NONE',  ( 0.0000000000000000000, 0.0000000000000000000, -136.4000000000000100 ) ) ;
#64 = CARTESIAN_POINT ( 'NONE',  ( 1.670418234036989900E-014, 0.0000000000000000000, 136.4000000000000100 ) ) ;
#65 = CARTESIAN_POINT ( 'NONE',  ( 1.555301434917138600E-014, 0.0000000000000000000, 127.0000000000000000 ) ) ;
#66 = CARTESIAN_POINT ( 'NONE',  ( 0.0000000000000000000, 2.000000000000000000, -136.4000000000000100 ) ) ;
#67 = CARTESIAN_POINT ( 'NONE',  ( 0.0000000000000000000, 0.0000000000000000000, 0.0000000000000000000 ) ) ;
#68 = CARTESIAN_POINT ( 'NONE',  ( 1.555301434917138600E-014, 2.000000000000000000, 127.0000000000000000 ) ) ;
#69 = FILL_AREA_STYLE_COLOUR ( '', #103 ) ;
#70 =( LENGTH_UNIT ( ) NAMED_UNIT ( * ) SI_UNIT ( .MILLI., .METRE. ) );
#71 =( NAMED_UNIT ( * ) PLANE_ANGLE_UNIT ( ) SI_UNIT ( $, .RADIAN. ) );
#72 =( NAMED_UNIT ( * ) SI_UNIT ( $, .STERADIAN. ) SOLID_ANGLE_UNIT ( ) );
#73 = APPLICATION_PROTOCOL_DEFINITION ( 'draft international standard', 'automotive_design', 1998, #74 ) ;
#74 = APPLICATION_CONTEXT ( 'automotive_design' ) ;
#75 = FILL_AREA_STYLE ('',( #69 ) ) ;
#76 = DIRECTION ( 'NONE',  ( 0.0000000000000000000, 0.0000000000000000000, 1.000000000000000000 ) ) ;
#77 = CARTESIAN_POINT ( 'NONE',  ( 1.555301434917138600E-014, 2.000000000000000000, 127.0000000000000000 ) ) ;
#78 = DIRECTION ( 'NONE',  ( -0.0000000000000000000, -1.000000000000000000, -0.0000000000000000000 ) ) ;
#79 = CARTESIAN_POINT ( 'NONE',  ( 0.0000000000000000000, 2.000000000000000000, -136.4000000000000100 ) ) ;
#80 = DIRECTION ( 'NONE',  ( -0.0000000000000000000, -1.000000000000000000, -0.0000000000000000000 ) ) ;
#81 = FILL_AREA_STYLE ('',( #82 ) ) ;
#82 = FILL_AREA_STYLE_COLOUR ( '', #145 ) ;
#83 = CARTESIAN_POINT ( 'NONE',  ( 0.0000000000000000000, 0.0000000000000000000, -127.0000000000000000 ) ) ;
#84 = CARTESIAN_POINT ( 'NONE',  ( 0.0000000000000000000, 2.000000000000000000, 0.0000000000000000000 ) ) ;
#85 = DIRECTION ( 'NONE',  ( 0.0000000000000000000, 1.000000000000000000, 0.0000000000000000000 ) ) ;
#86 = DIRECTION ( 'NONE',  ( 0.0000000000000000000, 0.0000000000000000000, 1.000000000000000000 ) ) ;
#87 = SURFACE_SIDE_STYLE ('',( #174 ) ) ;
#88 = SURFACE_STYLE_USAGE ( .BOTH. , #87 ) ;
#89 =( LENGTH_UNIT ( ) NAMED_UNIT ( * ) SI_UNIT ( .MILLI., .METRE. ) );
#90 =( NAMED_UNIT ( * ) PLANE_ANGLE_UNIT ( ) SI_UNIT ( $, .RADIAN. ) );
#91 =( NAMED_UNIT ( * ) SI_UNIT ( $, .STERADIAN. ) SOLID_ANGLE_UNIT ( ) );
#92 = SURFACE_STYLE_USAGE ( .BOTH. , #6 ) ;
#93 =( LENGTH_UNIT ( ) NAMED_UNIT ( * ) SI_UNIT ( .MILLI., .METRE. ) );
#94 =( NAMED_UNIT ( * ) PLANE_ANGLE_UNIT ( ) SI_UNIT ( $, .RADIAN. ) );
#95 =( NAMED_UNIT ( * ) SI_UNIT ( $, .STERADIAN. ) SOLID_ANGLE_UNIT ( ) );
#96 = DIRECTION ( 'NONE',  ( 0.0000000000000000000, 0.0000000000000000000, 1.000000000000000000 ) ) ;
#97 = DIRECTION ( 'NONE',  ( 1.000000000000000000, 0.0000000000000000000, 0.0000000000000000000 ) ) ;
#98 = PRODUCT_CONTEXT ( 'NONE', #74, 'mechanical' ) ;
#99 = APPLICATION_CONTEXT ( 'automotive_design' ) ;
#100 = APPLICATION_PROTOCOL_DEFINITION ( 'draft international standard', 'automotive_design', 1998, #99 ) ;
#101 = DIRECTION ( 'NONE',  ( 0.0000000000000000000, 0.0000000000000000000, -1.000000000000000000 ) ) ;
#102 = DIRECTION ( 'NONE',  ( -0.0000000000000000000, -1.000000000000000000, -0.0000000000000000000 ) ) ;
#103 = COLOUR_RGB ( '',0.5372549019607842900, 0.3490196078431372400, 0.3372549019607843400 ) ;
#104 = SURFACE_STYLE_FILL_AREA ( #75 ) ;
#105 = PRESENTATION_STYLE_ASSIGNMENT (( #92 ) ) ;
#106 = SHAPE_DEFINITION_REPRESENTATION ( #203, #112 ) ;
#107 = PLANE ( 'NONE',  #34 ) ;
#108 = PRODUCT ( 'Hositrad_CG250', 'Hositrad_CG250', '', ( #98 ) ) ;
#109 = UNCERTAINTY_MEASURE_WITH_UNIT (LENGTH_MEASURE( 1.000000000000000100E-005 ), #89, 'distance_accuracy_value', 'NONE');
#110 = MANIFOLD_SOLID_BREP ( 'Extrude1', #173 ) ;
#111 = UNCERTAINTY_MEASURE_WITH_UNIT (LENGTH_MEASURE( 1.000000000000000100E-005 ), #93, 'distance_accuracy_value', 'NONE');
#112 = ADVANCED_BREP_SHAPE_REPRESENTATION ( 'Hositrad_CG250', ( #110, #58 ), #53 ) ;
#113 = UNCERTAINTY_MEASURE_WITH_UNIT (LENGTH_MEASURE( 1.000000000000000100E-005 ), #70, 'distance_accuracy_value', 'NONE');
#114 = CARTESIAN_POINT ( 'NONE',  ( 0.0000000000000000000, 2.000000000000000000, 0.0000000000000000000 ) ) ;
#115 = DIRECTION ( 'NONE',  ( 0.0000000000000000000, 1.000000000000000000, 0.0000000000000000000 ) ) ;
#116 = DIRECTION ( 'NONE',  ( 0.0000000000000000000, -0.0000000000000000000, 1.000000000000000000 ) ) ;
#117 = CARTESIAN_POINT ( 'NONE',  ( 0.0000000000000000000, 2.000000000000000000, 0.0000000000000000000 ) ) ;
#118 = DIRECTION ( 'NONE',  ( 0.0000000000000000000, 0.0000000000000000000, -1.000000000000000000 ) ) ;
#119 = DIRECTION ( 'NONE',  ( -0.0000000000000000000, -1.000000000000000000, -0.0000000000000000000 ) ) ;
#120 = DIRECTION ( 'NONE',  ( 0.0000000000000000000, 0.0000000000000000000, -1.000000000000000000 ) ) ;
#121 = CARTESIAN_POINT ( 'NONE',  ( 0.0000000000000000000, 2.000000000000000000, 0.0000000000000000000 ) ) ;
#122 = DIRECTION ( 'NONE',  ( -0.0000000000000000000, -1.000000000000000000, -0.0000000000000000000 ) ) ;
#123 = DIRECTION ( 'NONE',  ( 0.0000000000000000000, 1.000000000000000000, 0.0000000000000000000 ) ) ;
#124 = CARTESIAN_POINT ( 'NONE',  ( 0.0000000000000000000, 0.0000000000000000000, 0.0000000000000000000 ) ) ;
#125 = DIRECTION ( 'NONE',  ( -0.0000000000000000000, -1.000000000000000000, -0.0000000000000000000 ) ) ;
#126 = PLANE ( 'NONE',  #30 ) ;
#127 = DIRECTION ( 'NONE',  ( 0.0000000000000000000, 0.0000000000000000000, -1.000000000000000000 ) ) ;
#128 = DIRECTION ( 'NONE',  ( 0.0000000000000000000, -0.0000000000000000000, 1.000000000000000000 ) ) ;
#129 = CARTESIAN_POINT ( 'NONE',  ( 0.0000000000000000000, 2.000000000000000000, 0.0000000000000000000 ) ) ;
#130 = CIRCLE ( 'NONE', #25, 127.0000000000000000 ) ;
#131 = ORIENTED_EDGE ( 'NONE', *, *, #44, .F. ) ;
#132 = EDGE_LOOP ( 'NONE', ( #134, #144, #181, #138 ) ) ;
#133 = ORIENTED_EDGE ( 'NONE', *, *, #37, .F. ) ;
#134 = ORIENTED_EDGE ( 'NONE', *, *, #42, .F. ) ;
#135 = FACE_OUTER_BOUND ( 'NONE', #188, .T. ) ;
#136 = VECTOR ( 'NONE', #80, 1000.000000000000000 ) ;
#137 = ORIENTED_EDGE ( 'NONE', *, *, #40, .T. ) ;
#138 = ORIENTED_EDGE ( 'NONE', *, *, #41, .T. ) ;
#139 = ORIENTED_EDGE ( 'NONE', *, *, #38, .T. ) ;
#140 = VERTEX_POINT ( 'NONE', #13 ) ;
#141 = VECTOR ( 'NONE', #204, 1000.000000000000000 ) ;
#142 = EDGE_LOOP ( 'NONE', ( #172, #171 ) ) ;
#143 = ORIENTED_EDGE ( 'NONE', *, *, #38, .F. ) ;
#144 = ORIENTED_EDGE ( 'NONE', *, *, #46, .F. ) ;
#145 = COLOUR_RGB ( '',0.9882352941176471000, 0.6274509803921568500, 0.5176470588235293500 ) ;
#146 = CIRCLE ( 'NONE', #47, 136.4000000000000100 ) ;
#147 = CIRCLE ( 'NONE', #26, 127.0000000000000000 ) ;
#148 = CIRCLE ( 'NONE', #29, 136.4000000000000100 ) ;
#149 = ORIENTED_EDGE ( 'NONE', *, *, #40, .F. ) ;
#150 = CIRCLE ( 'NONE', #48, 136.4000000000000100 ) ;
#151 = ORIENTED_EDGE ( 'NONE', *, *, #23, .F. ) ;
#152 = VERTEX_POINT ( 'NONE', #63 ) ;
#153 = FACE_OUTER_BOUND ( 'NONE', #142, .T. ) ;
#154 = PRESENTATION_STYLE_ASSIGNMENT (( #88 ) ) ;
#155 = ORIENTED_EDGE ( 'NONE', *, *, #44, .T. ) ;
#156 = CYLINDRICAL_SURFACE ( 'NONE', #32, 136.4000000000000100 ) ;
#157 = LINE ( 'NONE', #205, #141 ) ;
#158 = EDGE_LOOP ( 'NONE', ( #179, #149 ) ) ;
#159 = FACE_BOUND ( 'NONE', #193, .T. ) ;
#160 = ORIENTED_EDGE ( 'NONE', *, *, #45, .F. ) ;
#161 = VERTEX_POINT ( 'NONE', #83 ) ;
#162 = FACE_OUTER_BOUND ( 'NONE', #201, .T. ) ;
#163 = EDGE_LOOP ( 'NONE', ( #131, #186, #196, #191 ) ) ;
#164 = VERTEX_POINT ( 'NONE', #64 ) ;
#165 = CYLINDRICAL_SURFACE ( 'NONE', #28, 136.4000000000000100 ) ;
#166 = ORIENTED_EDGE ( 'NONE', *, *, #39, .T. ) ;
#167 = ORIENTED_EDGE ( 'NONE', *, *, #36, .T. ) ;
#168 = ORIENTED_EDGE ( 'NONE', *, *, #42, .T. ) ;
#169 = EDGE_LOOP ( 'NONE', ( #166, #167 ) ) ;
#170 = CIRCLE ( 'NONE', #43, 136.4000000000000100 ) ;
#171 = ORIENTED_EDGE ( 'NONE', *, *, #23, .T. ) ;
#172 = ORIENTED_EDGE ( 'NONE', *, *, #46, .T. ) ;
#173 = CLOSED_SHELL ( 'NONE', ( #16, #18, #17, #20, #21, #19 ) ) ;
#174 = SURFACE_STYLE_FILL_AREA ( #81 ) ;
#175 = FACE_OUTER_BOUND ( 'NONE', #158, .T. ) ;
#176 = VERTEX_POINT ( 'NONE', #65 ) ;
#177 = VERTEX_POINT ( 'NONE', #62 ) ;
#178 = VERTEX_POINT ( 'NONE', #66 ) ;
#179 = ORIENTED_EDGE ( 'NONE', *, *, #41, .F. ) ;
#180 = LINE ( 'NONE', #79, #136 ) ;
#181 = ORIENTED_EDGE ( 'NONE', *, *, #45, .T. ) ;
#182 = CYLINDRICAL_SURFACE ( 'NONE', #35, 127.0000000000000000 ) ;
#183 = FACE_OUTER_BOUND ( 'NONE', #132, .T. ) ;
#184 = ORIENTED_EDGE ( 'NONE', *, *, #27, .F. ) ;
#185 = CIRCLE ( 'NONE', #24, 127.0000000000000000 ) ;
#186 = ORIENTED_EDGE ( 'NONE', *, *, #37, .T. ) ;
#187 = VERTEX_POINT ( 'NONE', #68 ) ;
#188 = EDGE_LOOP ( 'NONE', ( #151, #168, #137, #160 ) ) ;
#189 = LINE ( 'NONE', #77, #200 ) ;
#190 = FACE_BOUND ( 'NONE', #169, .T. ) ;
#191 = ORIENTED_EDGE ( 'NONE', *, *, #36, .F. ) ;
#192 = CYLINDRICAL_SURFACE ( 'NONE', #31, 127.0000000000000000 ) ;
#193 = EDGE_LOOP ( 'NONE', ( #143, #133 ) ) ;
#194 = VECTOR ( 'NONE', #2, 1000.000000000000000 ) ;
#195 = CIRCLE ( 'NONE', #33, 127.0000000000000000 ) ;
#196 = ORIENTED_EDGE ( 'NONE', *, *, #27, .T. ) ;
#197 = FACE_OUTER_BOUND ( 'NONE', #163, .T. ) ;
#198 = ORIENTED_EDGE ( 'NONE', *, *, #39, .F. ) ;
#199 = LINE ( 'NONE', #14, #194 ) ;
#200 = VECTOR ( 'NONE', #78, 1000.000000000000000 ) ;
#201 = EDGE_LOOP ( 'NONE', ( #139, #155, #198, #184 ) ) ;
#202 = PRODUCT_DEFINITION_CONTEXT ( 'detailed design', #99, 'design' ) ;
#203 = PRODUCT_DEFINITION_SHAPE ( 'NONE', 'NONE',  #59 ) ;
#204 = DIRECTION ( 'NONE',  ( -0.0000000000000000000, -1.000000000000000000, -0.0000000000000000000 ) ) ;
#205 = CARTESIAN_POINT ( 'NONE',  ( 0.0000000000000000000, 2.000000000000000000, -127.0000000000000000 ) ) ;
#206 = CARTESIAN_POINT ( 'NONE',  ( 0.0000000000000000000, 2.000000000000000000, 0.0000000000000000000 ) ) ;
#207 = DIRECTION ( 'NONE',  ( 0.0000000000000000000, 1.000000000000000000, 0.0000000000000000000 ) ) ;
#208 = DIRECTION ( 'NONE',  ( 0.0000000000000000000, 0.0000000000000000000, 1.000000000000000000 ) ) ;
#209 = DIRECTION ( 'NONE',  ( 0.0000000000000000000, 1.000000000000000000, 0.0000000000000000000 ) ) ;
#210 = CARTESIAN_POINT ( 'NONE',  ( 0.0000000000000000000, 0.0000000000000000000, 0.0000000000000000000 ) ) ;
#211 = DIRECTION ( 'NONE',  ( 0.0000000000000000000, 1.000000000000000000, 0.0000000000000000000 ) ) ;
#212 = DIRECTION ( 'NONE',  ( 0.0000000000000000000, 0.0000000000000000000, 1.000000000000000000 ) ) ;
#213 = CARTESIAN_POINT ( 'NONE',  ( 0.0000000000000000000, 2.000000000000000000, 0.0000000000000000000 ) ) ;
#214 = CARTESIAN_POINT ( 'NONE',  ( 0.0000000000000000000, 2.000000000000000000, 0.0000000000000000000 ) ) ;
ENDSEC;
END-ISO-10303-21;
