ISO-10303-21;
HEADER;
FILE_DESCRIPTION (( 'STEP AP214' ),
    '1' );
FILE_NAME ('Hositrad_CG300-ISO3669.STEP',
    '2017-08-30T06:36:58',
    ( 'Gebruiker' ),
    ( '' ),
    'SwSTEP 2.0',
    'SolidWorks 2017',
    '' );
FILE_SCHEMA (( 'AUTOMOTIVE_DESIGN' ));
ENDSEC;

DATA;
#1 = DIRECTION ( 'NONE',  ( -0.0000000000000000000, -1.000000000000000000, -0.0000000000000000000 ) ) ;
#2 = AXIS2_PLACEMENT_3D ( 'NONE', #128, #33, #145 ) ;
#3 = FACE_OUTER_BOUND ( 'NONE', #141, .T. ) ;
#4 = VECTOR ( 'NONE', #82, 1000.000000000000000 ) ;
#5 = DIRECTION ( 'NONE',  ( 0.0000000000000000000, 1.000000000000000000, 0.0000000000000000000 ) ) ;
#6 = ORIENTED_EDGE ( 'NONE', *, *, #94, .T. ) ;
#7 = EDGE_CURVE ( 'NONE', #202, #10, #158, .T. ) ;
#8 = VECTOR ( 'NONE', #161, 1000.000000000000000 ) ;
#9 =( NAMED_UNIT ( * ) SI_UNIT ( $, .STERADIAN. ) SOLID_ANGLE_UNIT ( ) );
#10 = VERTEX_POINT ( 'NONE', #114 ) ;
#11 = SURFACE_STYLE_USAGE ( .BOTH. , #121 ) ;
#12 = DIRECTION ( 'NONE',  ( 0.0000000000000000000, 0.0000000000000000000, 1.000000000000000000 ) ) ;
#13 = DIRECTION ( 'NONE',  ( 0.0000000000000000000, 0.0000000000000000000, 1.000000000000000000 ) ) ;
#14 = VECTOR ( 'NONE', #181, 1000.000000000000000 ) ;
#15 = ORIENTED_EDGE ( 'NONE', *, *, #42, .F. ) ;
#16 = EDGE_CURVE ( 'NONE', #10, #202, #132, .T. ) ;
#17 = FACE_OUTER_BOUND ( 'NONE', #175, .T. ) ;
#18 = AXIS2_PLACEMENT_3D ( 'NONE', #189, #115, #27 ) ;
#19 = CARTESIAN_POINT ( 'NONE',  ( 0.0000000000000000000, 2.000000000000000000, -163.1000000000000200 ) ) ;
#20 = AXIS2_PLACEMENT_3D ( 'NONE', #88, #191, #207 ) ;
#21 = SURFACE_STYLE_USAGE ( .BOTH. , #130 ) ;
#22 = CYLINDRICAL_SURFACE ( 'NONE', #55, 163.1000000000000200 ) ;
#23 = PLANE ( 'NONE',  #176 ) ;
#24 = CARTESIAN_POINT ( 'NONE',  ( 1.787984326755135400E-014, 2.000000000000000000, 146.0000000000000000 ) ) ;
#25 = AXIS2_PLACEMENT_3D ( 'NONE', #178, #200, #66 ) ;
#26 = DIRECTION ( 'NONE',  ( 0.0000000000000000000, 1.000000000000000000, 0.0000000000000000000 ) ) ;
#27 = DIRECTION ( 'NONE',  ( 0.0000000000000000000, 0.0000000000000000000, -1.000000000000000000 ) ) ;
#28 = CARTESIAN_POINT ( 'NONE',  ( 1.997398929409333200E-014, 2.000000000000000000, 163.1000000000000200 ) ) ;
#29 = FILL_AREA_STYLE ('',( #211 ) ) ;
#30 = CARTESIAN_POINT ( 'NONE',  ( 0.0000000000000000000, 2.000000000000000000, 0.0000000000000000000 ) ) ;
#31 = ORIENTED_EDGE ( 'NONE', *, *, #87, .F. ) ;
#32 = CYLINDRICAL_SURFACE ( 'NONE', #20, 146.0000000000000000 ) ;
#33 = DIRECTION ( 'NONE',  ( 0.0000000000000000000, 1.000000000000000000, 0.0000000000000000000 ) ) ;
#34 = AXIS2_PLACEMENT_3D ( 'NONE', #144, #53, #37 ) ;
#35 = PRESENTATION_STYLE_ASSIGNMENT (( #11 ) ) ;
#36 = FILL_AREA_STYLE ('',( #99 ) ) ;
#37 = DIRECTION ( 'NONE',  ( 0.0000000000000000000, 0.0000000000000000000, 1.000000000000000000 ) ) ;
#38 = DIRECTION ( 'NONE',  ( 0.0000000000000000000, 1.000000000000000000, 0.0000000000000000000 ) ) ;
#39 = CARTESIAN_POINT ( 'NONE',  ( 0.0000000000000000000, 2.000000000000000000, 0.0000000000000000000 ) ) ;
#40 = EDGE_LOOP ( 'NONE', ( #187, #85 ) ) ;
#41 = EDGE_CURVE ( 'NONE', #186, #127, #96, .T. ) ;
#42 = EDGE_CURVE ( 'NONE', #186, #59, #170, .T. ) ;
#43 = DIRECTION ( 'NONE',  ( 0.0000000000000000000, 0.0000000000000000000, 1.000000000000000000 ) ) ;
#44 = ADVANCED_FACE ( 'NONE', ( #3 ), #22, .T. ) ;
#45 = APPLICATION_PROTOCOL_DEFINITION ( 'draft international standard', 'automotive_design', 1998, #153 ) ;
#46 = ORIENTED_EDGE ( 'NONE', *, *, #87, .T. ) ;
#47 = SURFACE_STYLE_FILL_AREA ( #29 ) ;
#48 = EDGE_LOOP ( 'NONE', ( #78, #192 ) ) ;
#49 = UNCERTAINTY_MEASURE_WITH_UNIT (LENGTH_MEASURE( 1.000000000000000100E-005 ), #70, 'distance_accuracy_value', 'NONE');
#50 = DIRECTION ( 'NONE',  ( 0.0000000000000000000, 0.0000000000000000000, -1.000000000000000000 ) ) ;
#51 = ORIENTED_EDGE ( 'NONE', *, *, #62, .F. ) ;
#52 = AXIS2_PLACEMENT_3D ( 'NONE', #136, #171, #13 ) ;
#53 = DIRECTION ( 'NONE',  ( 0.0000000000000000000, 1.000000000000000000, 0.0000000000000000000 ) ) ;
#54 = PRODUCT_DEFINITION_CONTEXT ( 'detailed design', #153, 'design' ) ;
#55 = AXIS2_PLACEMENT_3D ( 'NONE', #63, #1, #50 ) ;
#56 = ADVANCED_FACE ( 'NONE', ( #194 ), #190, .T. ) ;
#57 = APPLICATION_PROTOCOL_DEFINITION ( 'draft international standard', 'automotive_design', 1998, #193 ) ;
#58 = PRODUCT_CONTEXT ( 'NONE', #193, 'mechanical' ) ;
#59 = VERTEX_POINT ( 'NONE', #95 ) ;
#60 = VECTOR ( 'NONE', #117, 1000.000000000000000 ) ;
#61 = EDGE_CURVE ( 'NONE', #65, #146, #139, .T. ) ;
#62 = EDGE_CURVE ( 'NONE', #146, #10, #140, .T. ) ;
#63 = CARTESIAN_POINT ( 'NONE',  ( 0.0000000000000000000, 2.000000000000000000, 0.0000000000000000000 ) ) ;
#64 = ORIENTED_EDGE ( 'NONE', *, *, #185, .T. ) ;
#65 = VERTEX_POINT ( 'NONE', #154 ) ;
#66 = DIRECTION ( 'NONE',  ( 0.0000000000000000000, 0.0000000000000000000, -1.000000000000000000 ) ) ;
#67 = UNCERTAINTY_MEASURE_WITH_UNIT (LENGTH_MEASURE( 1.000000000000000100E-005 ), #89, 'distance_accuracy_value', 'NONE');
#68 = EDGE_CURVE ( 'NONE', #146, #65, #93, .T. ) ;
#69 = ORIENTED_EDGE ( 'NONE', *, *, #62, .T. ) ;
#70 =( LENGTH_UNIT ( ) NAMED_UNIT ( * ) SI_UNIT ( .MILLI., .METRE. ) );
#71 = PRODUCT_DEFINITION_FORMATION_WITH_SPECIFIED_SOURCE ( 'ANY', '', #155, .NOT_KNOWN. ) ;
#72 = DIRECTION ( 'NONE',  ( 0.0000000000000000000, 0.0000000000000000000, 1.000000000000000000 ) ) ;
#73 = DIRECTION ( 'NONE',  ( 0.0000000000000000000, 1.000000000000000000, 0.0000000000000000000 ) ) ;
#74 = ORIENTED_EDGE ( 'NONE', *, *, #42, .T. ) ;
#75 = DIRECTION ( 'NONE',  ( 0.0000000000000000000, 1.000000000000000000, 0.0000000000000000000 ) ) ;
#76 = CIRCLE ( 'NONE', #206, 163.1000000000000200 ) ;
#77 = PRESENTATION_LAYER_ASSIGNMENT (  '', '', ( #201 ) ) ;
#78 = ORIENTED_EDGE ( 'NONE', *, *, #16, .T. ) ;
#79 = AXIS2_PLACEMENT_3D ( 'NONE', #159, #213, #98 ) ;
#80 = ORIENTED_EDGE ( 'NONE', *, *, #16, .F. ) ;
#81 = ADVANCED_FACE ( 'NONE', ( #17, #97 ), #169, .F. ) ;
#82 = DIRECTION ( 'NONE',  ( -0.0000000000000000000, -1.000000000000000000, -0.0000000000000000000 ) ) ;
#83 =( GEOMETRIC_REPRESENTATION_CONTEXT ( 3 ) GLOBAL_UNCERTAINTY_ASSIGNED_CONTEXT ( ( #106 ) ) GLOBAL_UNIT_ASSIGNED_CONTEXT ( ( #107, #210, #90 ) ) REPRESENTATION_CONTEXT ( 'NONE', 'WORKASPACE' ) );
#84 = PRESENTATION_LAYER_ASSIGNMENT (  '', '', ( #133 ) ) ;
#85 = ORIENTED_EDGE ( 'NONE', *, *, #61, .F. ) ;
#86 = CARTESIAN_POINT ( 'NONE',  ( 1.997398929409333200E-014, 0.0000000000000000000, 163.1000000000000200 ) ) ;
#87 = EDGE_CURVE ( 'NONE', #65, #202, #91, .T. ) ;
#88 = CARTESIAN_POINT ( 'NONE',  ( 0.0000000000000000000, 2.000000000000000000, 0.0000000000000000000 ) ) ;
#89 =( LENGTH_UNIT ( ) NAMED_UNIT ( * ) SI_UNIT ( .MILLI., .METRE. ) );
#90 =( NAMED_UNIT ( * ) SI_UNIT ( $, .STERADIAN. ) SOLID_ANGLE_UNIT ( ) );
#91 = LINE ( 'NONE', #24, #8 ) ;
#92 = CLOSED_SHELL ( 'NONE', ( #137, #56, #167, #81, #44, #208 ) ) ;
#93 = CIRCLE ( 'NONE', #135, 146.0000000000000000 ) ;
#94 = EDGE_CURVE ( 'NONE', #162, #59, #112, .T. ) ;
#95 = CARTESIAN_POINT ( 'NONE',  ( 0.0000000000000000000, 0.0000000000000000000, -163.1000000000000200 ) ) ;
#96 = CIRCLE ( 'NONE', #2, 163.1000000000000200 ) ;
#97 = FACE_BOUND ( 'NONE', #48, .T. ) ;
#98 = DIRECTION ( 'NONE',  ( 0.0000000000000000000, 0.0000000000000000000, 1.000000000000000000 ) ) ;
#99 = FILL_AREA_STYLE_COLOUR ( '', #104 ) ;
#100 = CARTESIAN_POINT ( 'NONE',  ( 0.0000000000000000000, 0.0000000000000000000, 0.0000000000000000000 ) ) ;
#101 =( GEOMETRIC_REPRESENTATION_CONTEXT ( 3 ) GLOBAL_UNCERTAINTY_ASSIGNED_CONTEXT ( ( #67 ) ) GLOBAL_UNIT_ASSIGNED_CONTEXT ( ( #89, #209, #9 ) ) REPRESENTATION_CONTEXT ( 'NONE', 'WORKASPACE' ) );
#102 = EDGE_LOOP ( 'NONE', ( #31, #199, #69, #177 ) ) ;
#103 = CARTESIAN_POINT ( 'NONE',  ( 0.0000000000000000000, 0.0000000000000000000, 0.0000000000000000000 ) ) ;
#104 = COLOUR_RGB ( '',0.9098039215686274400, 0.4431372549019607600, 0.03137254901960784300 ) ;
#105 = PRODUCT_DEFINITION ( 'UNKNOWN', '', #71, #54 ) ;
#106 = UNCERTAINTY_MEASURE_WITH_UNIT (LENGTH_MEASURE( 1.000000000000000100E-005 ), #107, 'distance_accuracy_value', 'NONE');
#107 =( LENGTH_UNIT ( ) NAMED_UNIT ( * ) SI_UNIT ( .MILLI., .METRE. ) );
#108 = CARTESIAN_POINT ( 'NONE',  ( 0.0000000000000000000, 2.000000000000000000, -146.0000000000000000 ) ) ;
#109 = CARTESIAN_POINT ( 'NONE',  ( 0.0000000000000000000, 2.000000000000000000, 0.0000000000000000000 ) ) ;
#110 = ORIENTED_EDGE ( 'NONE', *, *, #149, .T. ) ;
#111 =( GEOMETRIC_REPRESENTATION_CONTEXT ( 3 ) GLOBAL_UNCERTAINTY_ASSIGNED_CONTEXT ( ( #49 ) ) GLOBAL_UNIT_ASSIGNED_CONTEXT ( ( #70, #151, #118 ) ) REPRESENTATION_CONTEXT ( 'NONE', 'WORKASPACE' ) );
#112 = CIRCLE ( 'NONE', #165, 163.1000000000000200 ) ;
#113 = PRODUCT_DEFINITION_SHAPE ( 'NONE', 'NONE',  #105 ) ;
#114 = CARTESIAN_POINT ( 'NONE',  ( 0.0000000000000000000, 0.0000000000000000000, -146.0000000000000000 ) ) ;
#115 = DIRECTION ( 'NONE',  ( -0.0000000000000000000, -1.000000000000000000, -0.0000000000000000000 ) ) ;
#116 = AXIS2_PLACEMENT_3D ( 'NONE', #103, #38, #134 ) ;
#117 = DIRECTION ( 'NONE',  ( -0.0000000000000000000, -1.000000000000000000, -0.0000000000000000000 ) ) ;
#118 =( NAMED_UNIT ( * ) SI_UNIT ( $, .STERADIAN. ) SOLID_ANGLE_UNIT ( ) );
#119 = CARTESIAN_POINT ( 'NONE',  ( 0.0000000000000000000, 2.000000000000000000, -163.1000000000000200 ) ) ;
#120 = CARTESIAN_POINT ( 'NONE',  ( 0.0000000000000000000, 2.000000000000000000, -146.0000000000000000 ) ) ;
#121 = SURFACE_SIDE_STYLE ('',( #47 ) ) ;
#122 = CYLINDRICAL_SURFACE ( 'NONE', #18, 146.0000000000000000 ) ;
#123 = EDGE_LOOP ( 'NONE', ( #125, #110, #6, #15 ) ) ;
#124 = DIRECTION ( 'NONE',  ( 0.0000000000000000000, 1.000000000000000000, 0.0000000000000000000 ) ) ;
#125 = ORIENTED_EDGE ( 'NONE', *, *, #185, .F. ) ;
#126 = FACE_OUTER_BOUND ( 'NONE', #166, .T. ) ;
#127 = VERTEX_POINT ( 'NONE', #28 ) ;
#128 = CARTESIAN_POINT ( 'NONE',  ( 0.0000000000000000000, 2.000000000000000000, 0.0000000000000000000 ) ) ;
#129 = MECHANICAL_DESIGN_GEOMETRIC_PRESENTATION_REPRESENTATION (  '', ( #201 ), #83 ) ;
#130 = SURFACE_SIDE_STYLE ('',( #143 ) ) ;
#131 = CARTESIAN_POINT ( 'NONE',  ( 1.997398929409333200E-014, 2.000000000000000000, 163.1000000000000200 ) ) ;
#132 = CIRCLE ( 'NONE', #34, 146.0000000000000000 ) ;
#133 = STYLED_ITEM ( 'NONE', ( #188 ), #156 ) ;
#134 = DIRECTION ( 'NONE',  ( 0.0000000000000000000, -0.0000000000000000000, 1.000000000000000000 ) ) ;
#135 = AXIS2_PLACEMENT_3D ( 'NONE', #39, #5, #43 ) ;
#136 = CARTESIAN_POINT ( 'NONE',  ( 0.0000000000000000000, 2.000000000000000000, 0.0000000000000000000 ) ) ;
#137 = ADVANCED_FACE ( 'NONE', ( #126 ), #122, .F. ) ;
#138 = MECHANICAL_DESIGN_GEOMETRIC_PRESENTATION_REPRESENTATION (  '', ( #133 ), #111 ) ;
#139 = CIRCLE ( 'NONE', #52, 146.0000000000000000 ) ;
#140 = LINE ( 'NONE', #108, #60 ) ;
#141 = EDGE_LOOP ( 'NONE', ( #147, #204, #74, #180 ) ) ;
#142 = ADVANCED_BREP_SHAPE_REPRESENTATION ( 'Hositrad_CG300-ISO3669', ( #156, #197 ), #101 ) ;
#143 = SURFACE_STYLE_FILL_AREA ( #36 ) ;
#144 = CARTESIAN_POINT ( 'NONE',  ( 0.0000000000000000000, 0.0000000000000000000, 0.0000000000000000000 ) ) ;
#145 = DIRECTION ( 'NONE',  ( 0.0000000000000000000, 0.0000000000000000000, 1.000000000000000000 ) ) ;
#146 = VERTEX_POINT ( 'NONE', #120 ) ;
#147 = ORIENTED_EDGE ( 'NONE', *, *, #149, .F. ) ;
#148 = DIRECTION ( 'NONE',  ( 0.0000000000000000000, 0.0000000000000000000, 1.000000000000000000 ) ) ;
#149 = EDGE_CURVE ( 'NONE', #127, #162, #182, .T. ) ;
#150 = ORIENTED_EDGE ( 'NONE', *, *, #41, .T. ) ;
#151 =( NAMED_UNIT ( * ) PLANE_ANGLE_UNIT ( ) SI_UNIT ( $, .RADIAN. ) );
#152 = DIRECTION ( 'NONE',  ( 0.0000000000000000000, -0.0000000000000000000, 1.000000000000000000 ) ) ;
#153 = APPLICATION_CONTEXT ( 'automotive_design' ) ;
#154 = CARTESIAN_POINT ( 'NONE',  ( 1.787984326755135400E-014, 2.000000000000000000, 146.0000000000000000 ) ) ;
#155 = PRODUCT ( 'Hositrad_CG300-ISO3669', 'Hositrad_CG300-ISO3669', '', ( #58 ) ) ;
#156 = MANIFOLD_SOLID_BREP ( 'Extrude1', #92 ) ;
#157 = EDGE_CURVE ( 'NONE', #59, #162, #76, .T. ) ;
#158 = CIRCLE ( 'NONE', #79, 146.0000000000000000 ) ;
#159 = CARTESIAN_POINT ( 'NONE',  ( 0.0000000000000000000, 0.0000000000000000000, 0.0000000000000000000 ) ) ;
#160 = PRODUCT_RELATED_PRODUCT_CATEGORY ( 'part', '', ( #155 ) ) ;
#161 = DIRECTION ( 'NONE',  ( -0.0000000000000000000, -1.000000000000000000, -0.0000000000000000000 ) ) ;
#162 = VERTEX_POINT ( 'NONE', #86 ) ;
#163 = ORIENTED_EDGE ( 'NONE', *, *, #68, .T. ) ;
#164 = COLOUR_RGB ( '',0.5372549019607842900, 0.3490196078431372400, 0.3372549019607843400 ) ;
#165 = AXIS2_PLACEMENT_3D ( 'NONE', #100, #124, #148 ) ;
#166 = EDGE_LOOP ( 'NONE', ( #163, #46, #80, #51 ) ) ;
#167 = ADVANCED_FACE ( 'NONE', ( #196, #198 ), #23, .T. ) ;
#168 = CARTESIAN_POINT ( 'NONE',  ( 1.787984326755135400E-014, 0.0000000000000000000, 146.0000000000000000 ) ) ;
#169 = PLANE ( 'NONE',  #116 ) ;
#170 = LINE ( 'NONE', #19, #4 ) ;
#171 = DIRECTION ( 'NONE',  ( 0.0000000000000000000, 1.000000000000000000, 0.0000000000000000000 ) ) ;
#172 = DIRECTION ( 'NONE',  ( 1.000000000000000000, 0.0000000000000000000, 0.0000000000000000000 ) ) ;
#173 = DIRECTION ( 'NONE',  ( 0.0000000000000000000, 0.0000000000000000000, 1.000000000000000000 ) ) ;
#174 = CARTESIAN_POINT ( 'NONE',  ( 0.0000000000000000000, 0.0000000000000000000, 0.0000000000000000000 ) ) ;
#175 = EDGE_LOOP ( 'NONE', ( #214, #183 ) ) ;
#176 = AXIS2_PLACEMENT_3D ( 'NONE', #30, #26, #152 ) ;
#177 = ORIENTED_EDGE ( 'NONE', *, *, #7, .F. ) ;
#178 = CARTESIAN_POINT ( 'NONE',  ( 0.0000000000000000000, 2.000000000000000000, 0.0000000000000000000 ) ) ;
#179 = EDGE_LOOP ( 'NONE', ( #150, #64 ) ) ;
#180 = ORIENTED_EDGE ( 'NONE', *, *, #157, .T. ) ;
#181 = DIRECTION ( 'NONE',  ( -0.0000000000000000000, -1.000000000000000000, -0.0000000000000000000 ) ) ;
#182 = LINE ( 'NONE', #131, #14 ) ;
#183 = ORIENTED_EDGE ( 'NONE', *, *, #94, .F. ) ;
#184 = CIRCLE ( 'NONE', #212, 163.1000000000000200 ) ;
#185 = EDGE_CURVE ( 'NONE', #127, #186, #184, .T. ) ;
#186 = VERTEX_POINT ( 'NONE', #119 ) ;
#187 = ORIENTED_EDGE ( 'NONE', *, *, #68, .F. ) ;
#188 = PRESENTATION_STYLE_ASSIGNMENT (( #21 ) ) ;
#189 = CARTESIAN_POINT ( 'NONE',  ( 0.0000000000000000000, 2.000000000000000000, 0.0000000000000000000 ) ) ;
#190 = CYLINDRICAL_SURFACE ( 'NONE', #25, 163.1000000000000200 ) ;
#191 = DIRECTION ( 'NONE',  ( -0.0000000000000000000, -1.000000000000000000, -0.0000000000000000000 ) ) ;
#192 = ORIENTED_EDGE ( 'NONE', *, *, #7, .T. ) ;
#193 = APPLICATION_CONTEXT ( 'automotive_design' ) ;
#194 = FACE_OUTER_BOUND ( 'NONE', #123, .T. ) ;
#195 = CARTESIAN_POINT ( 'NONE',  ( 0.0000000000000000000, 0.0000000000000000000, 0.0000000000000000000 ) ) ;
#196 = FACE_OUTER_BOUND ( 'NONE', #179, .T. ) ;
#197 = AXIS2_PLACEMENT_3D ( 'NONE', #195, #72, #172 ) ;
#198 = FACE_BOUND ( 'NONE', #40, .T. ) ;
#199 = ORIENTED_EDGE ( 'NONE', *, *, #61, .T. ) ;
#200 = DIRECTION ( 'NONE',  ( -0.0000000000000000000, -1.000000000000000000, -0.0000000000000000000 ) ) ;
#201 = STYLED_ITEM ( 'NONE', ( #35 ), #142 ) ;
#202 = VERTEX_POINT ( 'NONE', #168 ) ;
#203 = SHAPE_DEFINITION_REPRESENTATION ( #113, #142 ) ;
#204 = ORIENTED_EDGE ( 'NONE', *, *, #41, .F. ) ;
#205 = FACE_OUTER_BOUND ( 'NONE', #102, .T. ) ;
#206 = AXIS2_PLACEMENT_3D ( 'NONE', #174, #75, #12 ) ;
#207 = DIRECTION ( 'NONE',  ( 0.0000000000000000000, 0.0000000000000000000, -1.000000000000000000 ) ) ;
#208 = ADVANCED_FACE ( 'NONE', ( #205 ), #32, .F. ) ;
#209 =( NAMED_UNIT ( * ) PLANE_ANGLE_UNIT ( ) SI_UNIT ( $, .RADIAN. ) );
#210 =( NAMED_UNIT ( * ) PLANE_ANGLE_UNIT ( ) SI_UNIT ( $, .RADIAN. ) );
#211 = FILL_AREA_STYLE_COLOUR ( '', #164 ) ;
#212 = AXIS2_PLACEMENT_3D ( 'NONE', #109, #73, #173 ) ;
#213 = DIRECTION ( 'NONE',  ( 0.0000000000000000000, 1.000000000000000000, 0.0000000000000000000 ) ) ;
#214 = ORIENTED_EDGE ( 'NONE', *, *, #157, .F. ) ;
ENDSEC;
END-ISO-10303-21;
