ISO-10303-21;
HEADER;
FILE_DESCRIPTION (( 'STEP AP214' ),
    '1' );
FILE_NAME ('Hositrad_CG300.STEP',
    '2012-07-05T14:59:02',
    ( '' ),
    ( '' ),
    'SwSTEP 2.0',
    'SolidWorks 2012',
    '' );
FILE_SCHEMA (( 'AUTOMOTIVE_DESIGN' ));
ENDSEC;

DATA;
#1 = DIRECTION ( 'NONE',  ( -0.0000000000000000000, -1.000000000000000000, -0.0000000000000000000 ) ) ;
#2 = CARTESIAN_POINT ( 'NONE',  ( 0.0000000000000000000, 2.000000000000000000, -150.0000000000000300 ) ) ;
#3 = DIRECTION ( 'NONE',  ( -0.0000000000000000000, -1.000000000000000000, -0.0000000000000000000 ) ) ;
#4 = CARTESIAN_POINT ( 'NONE',  ( 1.836970198721030100E-014, 2.000000000000000000, 150.0000000000000300 ) ) ;
#5 = EDGE_CURVE ( 'NONE', #147, #97, #137, .T. ) ;
#6 = AXIS2_PLACEMENT_3D ( 'NONE', #44, #46, #47 ) ;
#7 =( GEOMETRIC_REPRESENTATION_CONTEXT ( 3 ) GLOBAL_UNCERTAINTY_ASSIGNED_CONTEXT ( ( #178 ) ) GLOBAL_UNIT_ASSIGNED_CONTEXT ( ( #205, #206, #207 ) ) REPRESENTATION_CONTEXT ( 'NONE', 'WORKASPACE' ) );
#8 =( GEOMETRIC_REPRESENTATION_CONTEXT ( 3 ) GLOBAL_UNCERTAINTY_ASSIGNED_CONTEXT ( ( #176 ) ) GLOBAL_UNIT_ASSIGNED_CONTEXT ( ( #89, #90, #91 ) ) REPRESENTATION_CONTEXT ( 'NONE', 'WORKASPACE' ) );
#9 = MECHANICAL_DESIGN_GEOMETRIC_PRESENTATION_REPRESENTATION (  '', ( #11 ), #8 ) ;
#10 = PRESENTATION_LAYER_ASSIGNMENT (  '', '', ( #11 ) ) ;
#11 = STYLED_ITEM ( 'NONE', ( #131 ), #177 ) ;
#12 = EDGE_CURVE ( 'NONE', #98, #132, #141, .T. ) ;
#13 = AXIS2_PLACEMENT_3D ( 'NONE', #77, #78, #79 ) ;
#14 = AXIS2_PLACEMENT_3D ( 'NONE', #197, #73, #74 ) ;
#15 = AXIS2_PLACEMENT_3D ( 'NONE', #69, #70, #71 ) ;
#16 = AXIS2_PLACEMENT_3D ( 'NONE', #65, #66, #67 ) ;
#17 = AXIS2_PLACEMENT_3D ( 'NONE', #60, #61, #62 ) ;
#18 = AXIS2_PLACEMENT_3D ( 'NONE', #194, #195, #196 ) ;
#19 = AXIS2_PLACEMENT_3D ( 'NONE', #191, #192, #193 ) ;
#20 = AXIS2_PLACEMENT_3D ( 'NONE', #187, #188, #189 ) ;
#21 = EDGE_CURVE ( 'NONE', #132, #110, #93, .T. ) ;
#22 = EDGE_CURVE ( 'NONE', #109, #97, #129, .T. ) ;
#23 = EDGE_CURVE ( 'NONE', #166, #147, #154, .T. ) ;
#24 = EDGE_CURVE ( 'NONE', #166, #109, #156, .T. ) ;
#25 = EDGE_CURVE ( 'NONE', #120, #98, #139, .T. ) ;
#26 = EDGE_CURVE ( 'NONE', #98, #120, #128, .T. ) ;
#27 = EDGE_CURVE ( 'NONE', #147, #166, #159, .T. ) ;
#28 = EDGE_CURVE ( 'NONE', #120, #110, #114, .T. ) ;
#29 = AXIS2_PLACEMENT_3D ( 'NONE', #48, #49, #45 ) ;
#30 = EDGE_CURVE ( 'NONE', #97, #109, #160, .T. ) ;
#31 = EDGE_CURVE ( 'NONE', #110, #132, #102, .T. ) ;
#32 = AXIS2_PLACEMENT_3D ( 'NONE', #51, #52, #50 ) ;
#33 = AXIS2_PLACEMENT_3D ( 'NONE', #54, #53, #58 ) ;
#34 = AXIS2_PLACEMENT_3D ( 'NONE', #59, #55, #57 ) ;
#35 = AXIS2_PLACEMENT_3D ( 'NONE', #200, #203, #204 ) ;
#36 = STYLED_ITEM ( 'NONE', ( #107 ), #179 ) ;
#37 = PRESENTATION_LAYER_ASSIGNMENT (  '', '', ( #36 ) ) ;
#38 = MECHANICAL_DESIGN_GEOMETRIC_PRESENTATION_REPRESENTATION (  '', ( #36 ), #39 ) ;
#39 =( GEOMETRIC_REPRESENTATION_CONTEXT ( 3 ) GLOBAL_UNCERTAINTY_ASSIGNED_CONTEXT ( ( #180 ) ) GLOBAL_UNIT_ASSIGNED_CONTEXT ( ( #86, #168, #169 ) ) REPRESENTATION_CONTEXT ( 'NONE', 'WORKASPACE' ) );
#40 = AXIS2_PLACEMENT_3D ( 'NONE', #202, #170, #171 ) ;
#41 = PRODUCT_DEFINITION ( 'UNKNOWN', '', #42, #198 ) ;
#42 = PRODUCT_DEFINITION_FORMATION_WITH_SPECIFIED_SOURCE ( 'ANY', '', #175, .NOT_KNOWN. ) ;
#43 = PRODUCT_RELATED_PRODUCT_CATEGORY ( 'part', '', ( #175 ) ) ;
#44 = CARTESIAN_POINT ( 'NONE',  ( 0.0000000000000000000, 2.000000000000000000, 0.0000000000000000000 ) ) ;
#45 = DIRECTION ( 'NONE',  ( 0.0000000000000000000, 0.0000000000000000000, -1.000000000000000000 ) ) ;
#46 = DIRECTION ( 'NONE',  ( -0.0000000000000000000, -1.000000000000000000, -0.0000000000000000000 ) ) ;
#47 = DIRECTION ( 'NONE',  ( 0.0000000000000000000, 0.0000000000000000000, -1.000000000000000000 ) ) ;
#48 = CARTESIAN_POINT ( 'NONE',  ( 0.0000000000000000000, 2.000000000000000000, 0.0000000000000000000 ) ) ;
#49 = DIRECTION ( 'NONE',  ( -0.0000000000000000000, -1.000000000000000000, -0.0000000000000000000 ) ) ;
#50 = DIRECTION ( 'NONE',  ( 0.0000000000000000000, 0.0000000000000000000, -1.000000000000000000 ) ) ;
#51 = CARTESIAN_POINT ( 'NONE',  ( 0.0000000000000000000, 2.000000000000000000, 0.0000000000000000000 ) ) ;
#52 = DIRECTION ( 'NONE',  ( -0.0000000000000000000, -1.000000000000000000, -0.0000000000000000000 ) ) ;
#53 = DIRECTION ( 'NONE',  ( 0.0000000000000000000, 1.000000000000000000, 0.0000000000000000000 ) ) ;
#54 = CARTESIAN_POINT ( 'NONE',  ( 0.0000000000000000000, 2.000000000000000000, 0.0000000000000000000 ) ) ;
#55 = DIRECTION ( 'NONE',  ( -0.0000000000000000000, -1.000000000000000000, -0.0000000000000000000 ) ) ;
#56 = PLANE ( 'NONE',  #33 ) ;
#57 = DIRECTION ( 'NONE',  ( 0.0000000000000000000, 0.0000000000000000000, -1.000000000000000000 ) ) ;
#58 = DIRECTION ( 'NONE',  ( 0.0000000000000000000, -0.0000000000000000000, 1.000000000000000000 ) ) ;
#59 = CARTESIAN_POINT ( 'NONE',  ( 0.0000000000000000000, 2.000000000000000000, 0.0000000000000000000 ) ) ;
#60 = CARTESIAN_POINT ( 'NONE',  ( 0.0000000000000000000, 2.000000000000000000, 0.0000000000000000000 ) ) ;
#61 = DIRECTION ( 'NONE',  ( 0.0000000000000000000, 1.000000000000000000, 0.0000000000000000000 ) ) ;
#62 = DIRECTION ( 'NONE',  ( 0.0000000000000000000, 0.0000000000000000000, 1.000000000000000000 ) ) ;
#63 = CARTESIAN_POINT ( 'NONE',  ( 1.917796887464755000E-014, 2.000000000000000000, 156.5999999999999900 ) ) ;
#64 = DIRECTION ( 'NONE',  ( -0.0000000000000000000, -1.000000000000000000, -0.0000000000000000000 ) ) ;
#65 = CARTESIAN_POINT ( 'NONE',  ( 0.0000000000000000000, 2.000000000000000000, 0.0000000000000000000 ) ) ;
#66 = DIRECTION ( 'NONE',  ( 0.0000000000000000000, 1.000000000000000000, 0.0000000000000000000 ) ) ;
#67 = DIRECTION ( 'NONE',  ( 0.0000000000000000000, 0.0000000000000000000, 1.000000000000000000 ) ) ;
#68 = CARTESIAN_POINT ( 'NONE',  ( 0.0000000000000000000, 0.0000000000000000000, -150.0000000000000300 ) ) ;
#69 = CARTESIAN_POINT ( 'NONE',  ( 0.0000000000000000000, 2.000000000000000000, 0.0000000000000000000 ) ) ;
#70 = DIRECTION ( 'NONE',  ( 0.0000000000000000000, 1.000000000000000000, 0.0000000000000000000 ) ) ;
#71 = DIRECTION ( 'NONE',  ( 0.0000000000000000000, 0.0000000000000000000, 1.000000000000000000 ) ) ;
#72 = CARTESIAN_POINT ( 'NONE',  ( 0.0000000000000000000, 2.000000000000000000, -156.5999999999999900 ) ) ;
#73 = DIRECTION ( 'NONE',  ( 0.0000000000000000000, 1.000000000000000000, 0.0000000000000000000 ) ) ;
#74 = DIRECTION ( 'NONE',  ( 0.0000000000000000000, 0.0000000000000000000, 1.000000000000000000 ) ) ;
#75 = CARTESIAN_POINT ( 'NONE',  ( 1.836970198721030100E-014, 0.0000000000000000000, 150.0000000000000300 ) ) ;
#76 = CARTESIAN_POINT ( 'NONE',  ( 1.917796887464755000E-014, 2.000000000000000000, 156.5999999999999900 ) ) ;
#77 = CARTESIAN_POINT ( 'NONE',  ( 0.0000000000000000000, 0.0000000000000000000, 0.0000000000000000000 ) ) ;
#78 = DIRECTION ( 'NONE',  ( 0.0000000000000000000, 1.000000000000000000, 0.0000000000000000000 ) ) ;
#79 = DIRECTION ( 'NONE',  ( 0.0000000000000000000, 0.0000000000000000000, 1.000000000000000000 ) ) ;
#80 = FILL_AREA_STYLE_COLOUR ( '', #108 ) ;
#81 = CARTESIAN_POINT ( 'NONE',  ( 1.917796887464755000E-014, 0.0000000000000000000, 156.5999999999999900 ) ) ;
#82 = FILL_AREA_STYLE ('',( #80 ) ) ;
#83 = CARTESIAN_POINT ( 'NONE',  ( 0.0000000000000000000, 0.0000000000000000000, -156.5999999999999900 ) ) ;
#84 = CARTESIAN_POINT ( 'NONE',  ( 0.0000000000000000000, 2.000000000000000000, -150.0000000000000300 ) ) ;
#85 = CARTESIAN_POINT ( 'NONE',  ( 1.836970198721030100E-014, 2.000000000000000000, 150.0000000000000300 ) ) ;
#86 =( LENGTH_UNIT ( ) NAMED_UNIT ( * ) SI_UNIT ( .MILLI., .METRE. ) );
#87 = SURFACE_SIDE_STYLE ('',( #148 ) ) ;
#88 = SURFACE_STYLE_USAGE ( .BOTH. , #87 ) ;
#89 =( LENGTH_UNIT ( ) NAMED_UNIT ( * ) SI_UNIT ( .MILLI., .METRE. ) );
#90 =( NAMED_UNIT ( * ) PLANE_ANGLE_UNIT ( ) SI_UNIT ( $, .RADIAN. ) );
#91 =( NAMED_UNIT ( * ) SI_UNIT ( $, .STERADIAN. ) SOLID_ANGLE_UNIT ( ) );
#92 = ORIENTED_EDGE ( 'NONE', *, *, #26, .F. ) ;
#93 = CIRCLE ( 'NONE', #20, 156.5999999999999900 ) ;
#94 = FACE_OUTER_BOUND ( 'NONE', #134, .T. ) ;
#95 = CYLINDRICAL_SURFACE ( 'NONE', #6, 156.5999999999999900 ) ;
#96 = EDGE_LOOP ( 'NONE', ( #116, #144, #161, #138 ) ) ;
#97 = VERTEX_POINT ( 'NONE', #68 ) ;
#98 = VERTEX_POINT ( 'NONE', #72 ) ;
#99 = ORIENTED_EDGE ( 'NONE', *, *, #27, .F. ) ;
#100 = ORIENTED_EDGE ( 'NONE', *, *, #5, .T. ) ;
#101 = ORIENTED_EDGE ( 'NONE', *, *, #28, .F. ) ;
#102 = CIRCLE ( 'NONE', #13, 156.5999999999999900 ) ;
#103 = FACE_OUTER_BOUND ( 'NONE', #96, .T. ) ;
#104 = FACE_BOUND ( 'NONE', #155, .T. ) ;
#105 = FACE_BOUND ( 'NONE', #163, .T. ) ;
#106 = SHAPE_DEFINITION_REPRESENTATION ( #199, #179 ) ;
#107 = PRESENTATION_STYLE_ASSIGNMENT (( #213 ) ) ;
#108 = COLOUR_RGB ( '',0.9882352941176471000, 0.6274509803921568500, 0.5176470588235293500 ) ;
#109 = VERTEX_POINT ( 'NONE', #75 ) ;
#110 = VERTEX_POINT ( 'NONE', #81 ) ;
#111 = CYLINDRICAL_SURFACE ( 'NONE', #29, 150.0000000000000300 ) ;
#112 = EDGE_LOOP ( 'NONE', ( #140, #113 ) ) ;
#113 = ORIENTED_EDGE ( 'NONE', *, *, #31, .F. ) ;
#114 = LINE ( 'NONE', #63, #149 ) ;
#115 = EDGE_LOOP ( 'NONE', ( #164, #118, #100, #121 ) ) ;
#116 = ORIENTED_EDGE ( 'NONE', *, *, #27, .T. ) ;
#117 = FACE_OUTER_BOUND ( 'NONE', #119, .T. ) ;
#118 = ORIENTED_EDGE ( 'NONE', *, *, #23, .T. ) ;
#119 = EDGE_LOOP ( 'NONE', ( #101, #92, #123, #136 ) ) ;
#120 = VERTEX_POINT ( 'NONE', #76 ) ;
#121 = ORIENTED_EDGE ( 'NONE', *, *, #22, .F. ) ;
#122 = ORIENTED_EDGE ( 'NONE', *, *, #23, .F. ) ;
#123 = ORIENTED_EDGE ( 'NONE', *, *, #12, .T. ) ;
#124 = EDGE_LOOP ( 'NONE', ( #167, #146 ) ) ;
#125 = CLOSED_SHELL ( 'NONE', ( #183, #185, #184, #186, #181, #182 ) ) ;
#126 = VECTOR ( 'NONE', #1, 1000.000000000000000 ) ;
#127 = ORIENTED_EDGE ( 'NONE', *, *, #12, .F. ) ;
#128 = CIRCLE ( 'NONE', #16, 156.5999999999999900 ) ;
#129 = CIRCLE ( 'NONE', #19, 150.0000000000000300 ) ;
#130 = ORIENTED_EDGE ( 'NONE', *, *, #28, .T. ) ;
#131 = PRESENTATION_STYLE_ASSIGNMENT (( #88 ) ) ;
#132 = VERTEX_POINT ( 'NONE', #83 ) ;
#133 = SURFACE_STYLE_FILL_AREA ( #211 ) ;
#134 = EDGE_LOOP ( 'NONE', ( #135, #130, #153, #127 ) ) ;
#135 = ORIENTED_EDGE ( 'NONE', *, *, #25, .F. ) ;
#136 = ORIENTED_EDGE ( 'NONE', *, *, #21, .T. ) ;
#137 = LINE ( 'NONE', #2, #126 ) ;
#138 = ORIENTED_EDGE ( 'NONE', *, *, #5, .F. ) ;
#139 = CIRCLE ( 'NONE', #17, 156.5999999999999900 ) ;
#140 = ORIENTED_EDGE ( 'NONE', *, *, #21, .F. ) ;
#141 = LINE ( 'NONE', #214, #143 ) ;
#142 = FACE_OUTER_BOUND ( 'NONE', #124, .T. ) ;
#143 = VECTOR ( 'NONE', #3, 1000.000000000000000 ) ;
#144 = ORIENTED_EDGE ( 'NONE', *, *, #24, .T. ) ;
#145 = FACE_OUTER_BOUND ( 'NONE', #115, .T. ) ;
#146 = ORIENTED_EDGE ( 'NONE', *, *, #25, .T. ) ;
#147 = VERTEX_POINT ( 'NONE', #84 ) ;
#148 = SURFACE_STYLE_FILL_AREA ( #82 ) ;
#149 = VECTOR ( 'NONE', #64, 1000.000000000000000 ) ;
#150 = VECTOR ( 'NONE', #190, 1000.000000000000000 ) ;
#151 = FACE_OUTER_BOUND ( 'NONE', #112, .T. ) ;
#152 = ORIENTED_EDGE ( 'NONE', *, *, #22, .T. ) ;
#153 = ORIENTED_EDGE ( 'NONE', *, *, #31, .T. ) ;
#154 = CIRCLE ( 'NONE', #18, 150.0000000000000300 ) ;
#155 = EDGE_LOOP ( 'NONE', ( #99, #122 ) ) ;
#156 = LINE ( 'NONE', #4, #150 ) ;
#157 = CYLINDRICAL_SURFACE ( 'NONE', #34, 156.5999999999999900 ) ;
#158 = CYLINDRICAL_SURFACE ( 'NONE', #32, 150.0000000000000300 ) ;
#159 = CIRCLE ( 'NONE', #15, 150.0000000000000300 ) ;
#160 = CIRCLE ( 'NONE', #14, 150.0000000000000300 ) ;
#161 = ORIENTED_EDGE ( 'NONE', *, *, #30, .F. ) ;
#162 = COLOUR_RGB ( '',0.5372549019607842900, 0.3490196078431372400, 0.3372549019607843400 ) ;
#163 = EDGE_LOOP ( 'NONE', ( #165, #152 ) ) ;
#164 = ORIENTED_EDGE ( 'NONE', *, *, #24, .F. ) ;
#165 = ORIENTED_EDGE ( 'NONE', *, *, #30, .T. ) ;
#166 = VERTEX_POINT ( 'NONE', #85 ) ;
#167 = ORIENTED_EDGE ( 'NONE', *, *, #26, .T. ) ;
#168 =( NAMED_UNIT ( * ) PLANE_ANGLE_UNIT ( ) SI_UNIT ( $, .RADIAN. ) );
#169 =( NAMED_UNIT ( * ) SI_UNIT ( $, .STERADIAN. ) SOLID_ANGLE_UNIT ( ) );
#170 = DIRECTION ( 'NONE',  ( 0.0000000000000000000, 0.0000000000000000000, 1.000000000000000000 ) ) ;
#171 = DIRECTION ( 'NONE',  ( 1.000000000000000000, 0.0000000000000000000, 0.0000000000000000000 ) ) ;
#172 = PRODUCT_CONTEXT ( 'NONE', #209, 'mechanical' ) ;
#173 = APPLICATION_CONTEXT ( 'automotive_design' ) ;
#174 = APPLICATION_PROTOCOL_DEFINITION ( 'draft international standard', 'automotive_design', 1998, #173 ) ;
#175 = PRODUCT ( 'Hositrad_CG300', 'Hositrad_CG300', '', ( #172 ) ) ;
#176 = UNCERTAINTY_MEASURE_WITH_UNIT (LENGTH_MEASURE( 1.000000000000000100E-005 ), #89, 'distance_accuracy_value', 'NONE');
#177 = MANIFOLD_SOLID_BREP ( 'Extrude1', #125 ) ;
#178 = UNCERTAINTY_MEASURE_WITH_UNIT (LENGTH_MEASURE( 1.000000000000000100E-005 ), #205, 'distance_accuracy_value', 'NONE');
#179 = ADVANCED_BREP_SHAPE_REPRESENTATION ( 'Hositrad_CG300', ( #177, #40 ), #7 ) ;
#180 = UNCERTAINTY_MEASURE_WITH_UNIT (LENGTH_MEASURE( 1.000000000000000100E-005 ), #86, 'distance_accuracy_value', 'NONE');
#181 = ADVANCED_FACE ( 'NONE', ( #117 ), #95, .T. ) ;
#182 = ADVANCED_FACE ( 'NONE', ( #145 ), #111, .F. ) ;
#183 = ADVANCED_FACE ( 'NONE', ( #103 ), #158, .F. ) ;
#184 = ADVANCED_FACE ( 'NONE', ( #142, #104 ), #56, .T. ) ;
#185 = ADVANCED_FACE ( 'NONE', ( #94 ), #157, .T. ) ;
#186 = ADVANCED_FACE ( 'NONE', ( #151, #105 ), #201, .F. ) ;
#187 = CARTESIAN_POINT ( 'NONE',  ( 0.0000000000000000000, 0.0000000000000000000, 0.0000000000000000000 ) ) ;
#188 = DIRECTION ( 'NONE',  ( 0.0000000000000000000, 1.000000000000000000, 0.0000000000000000000 ) ) ;
#189 = DIRECTION ( 'NONE',  ( 0.0000000000000000000, 0.0000000000000000000, 1.000000000000000000 ) ) ;
#190 = DIRECTION ( 'NONE',  ( -0.0000000000000000000, -1.000000000000000000, -0.0000000000000000000 ) ) ;
#191 = CARTESIAN_POINT ( 'NONE',  ( 0.0000000000000000000, 0.0000000000000000000, 0.0000000000000000000 ) ) ;
#192 = DIRECTION ( 'NONE',  ( 0.0000000000000000000, 1.000000000000000000, 0.0000000000000000000 ) ) ;
#193 = DIRECTION ( 'NONE',  ( 0.0000000000000000000, 0.0000000000000000000, 1.000000000000000000 ) ) ;
#194 = CARTESIAN_POINT ( 'NONE',  ( 0.0000000000000000000, 2.000000000000000000, 0.0000000000000000000 ) ) ;
#195 = DIRECTION ( 'NONE',  ( 0.0000000000000000000, 1.000000000000000000, 0.0000000000000000000 ) ) ;
#196 = DIRECTION ( 'NONE',  ( 0.0000000000000000000, 0.0000000000000000000, 1.000000000000000000 ) ) ;
#197 = CARTESIAN_POINT ( 'NONE',  ( 0.0000000000000000000, 0.0000000000000000000, 0.0000000000000000000 ) ) ;
#198 = PRODUCT_DEFINITION_CONTEXT ( 'detailed design', #173, 'design' ) ;
#199 = PRODUCT_DEFINITION_SHAPE ( 'NONE', 'NONE',  #41 ) ;
#200 = CARTESIAN_POINT ( 'NONE',  ( 0.0000000000000000000, 0.0000000000000000000, 0.0000000000000000000 ) ) ;
#201 = PLANE ( 'NONE',  #35 ) ;
#202 = CARTESIAN_POINT ( 'NONE',  ( 0.0000000000000000000, 0.0000000000000000000, 0.0000000000000000000 ) ) ;
#203 = DIRECTION ( 'NONE',  ( 0.0000000000000000000, 1.000000000000000000, 0.0000000000000000000 ) ) ;
#204 = DIRECTION ( 'NONE',  ( 0.0000000000000000000, -0.0000000000000000000, 1.000000000000000000 ) ) ;
#205 =( LENGTH_UNIT ( ) NAMED_UNIT ( * ) SI_UNIT ( .MILLI., .METRE. ) );
#206 =( NAMED_UNIT ( * ) PLANE_ANGLE_UNIT ( ) SI_UNIT ( $, .RADIAN. ) );
#207 =( NAMED_UNIT ( * ) SI_UNIT ( $, .STERADIAN. ) SOLID_ANGLE_UNIT ( ) );
#208 = APPLICATION_PROTOCOL_DEFINITION ( 'draft international standard', 'automotive_design', 1998, #209 ) ;
#209 = APPLICATION_CONTEXT ( 'automotive_design' ) ;
#210 = FILL_AREA_STYLE_COLOUR ( '', #162 ) ;
#211 = FILL_AREA_STYLE ('',( #210 ) ) ;
#212 = SURFACE_SIDE_STYLE ('',( #133 ) ) ;
#213 = SURFACE_STYLE_USAGE ( .BOTH. , #212 ) ;
#214 = CARTESIAN_POINT ( 'NONE',  ( 0.0000000000000000000, 2.000000000000000000, -156.5999999999999900 ) ) ;
ENDSEC;
END-ISO-10303-21;
