ISO-10303-21;
HEADER;
FILE_DESCRIPTION (( 'STEP AP214' ),
    '1' );
FILE_NAME ('Hositrad_CG350-ISO3669.STEP',
    '2017-08-30T06:41:53',
    ( 'Gebruiker' ),
    ( '' ),
    'SwSTEP 2.0',
    'SolidWorks 2017',
    '' );
FILE_SCHEMA (( 'AUTOMOTIVE_DESIGN' ));
ENDSEC;

DATA;
#1 =( NAMED_UNIT ( * ) PLANE_ANGLE_UNIT ( ) SI_UNIT ( $, .RADIAN. ) );
#2 = DIRECTION ( 'NONE',  ( 0.0000000000000000000, 0.0000000000000000000, 1.000000000000000000 ) ) ;
#3 = VECTOR ( 'NONE', #97, 1000.000000000000000 ) ;
#4 = SURFACE_SIDE_STYLE ('',( #13 ) ) ;
#5 = COLOUR_RGB ( '',0.9098039215686274400, 0.4431372549019607600, 0.03137254901960784300 ) ;
#6 =( LENGTH_UNIT ( ) NAMED_UNIT ( * ) SI_UNIT ( .MILLI., .METRE. ) );
#7 = CARTESIAN_POINT ( 'NONE',  ( 0.0000000000000000000, 2.000000000000000000, 0.0000000000000000000 ) ) ;
#8 = CARTESIAN_POINT ( 'NONE',  ( 0.0000000000000000000, 2.000000000000000000, 0.0000000000000000000 ) ) ;
#9 =( GEOMETRIC_REPRESENTATION_CONTEXT ( 3 ) GLOBAL_UNCERTAINTY_ASSIGNED_CONTEXT ( ( #37 ) ) GLOBAL_UNIT_ASSIGNED_CONTEXT ( ( #205, #87, #168 ) ) REPRESENTATION_CONTEXT ( 'NONE', 'WORKASPACE' ) );
#10 = ORIENTED_EDGE ( 'NONE', *, *, #210, .T. ) ;
#11 = FACE_BOUND ( 'NONE', #125, .T. ) ;
#12 = PRODUCT ( 'Hositrad_CG350-ISO3669', 'Hositrad_CG350-ISO3669', '', ( #194 ) ) ;
#13 = SURFACE_STYLE_FILL_AREA ( #22 ) ;
#14 = ADVANCED_FACE ( 'NONE', ( #154, #11 ), #99, .T. ) ;
#15 = VERTEX_POINT ( 'NONE', #164 ) ;
#16 =( GEOMETRIC_REPRESENTATION_CONTEXT ( 3 ) GLOBAL_UNCERTAINTY_ASSIGNED_CONTEXT ( ( #171 ) ) GLOBAL_UNIT_ASSIGNED_CONTEXT ( ( #68, #1, #201 ) ) REPRESENTATION_CONTEXT ( 'NONE', 'WORKASPACE' ) );
#17 = ORIENTED_EDGE ( 'NONE', *, *, #210, .F. ) ;
#18 = CARTESIAN_POINT ( 'NONE',  ( 0.0000000000000000000, 2.000000000000000000, -188.2500000000000000 ) ) ;
#19 = AXIS2_PLACEMENT_3D ( 'NONE', #73, #189, #90 ) ;
#20 = CYLINDRICAL_SURFACE ( 'NONE', #35, 178.2500000000000000 ) ;
#21 = CARTESIAN_POINT ( 'NONE',  ( 0.0000000000000000000, 2.000000000000000000, -178.2500000000000000 ) ) ;
#22 = FILL_AREA_STYLE ('',( #123 ) ) ;
#23 = LINE ( 'NONE', #162, #187 ) ;
#24 = ORIENTED_EDGE ( 'NONE', *, *, #101, .F. ) ;
#25 = APPLICATION_CONTEXT ( 'automotive_design' ) ;
#26 = EDGE_CURVE ( 'NONE', #84, #85, #41, .T. ) ;
#27 = EDGE_LOOP ( 'NONE', ( #140, #79, #129, #33 ) ) ;
#28 = FACE_OUTER_BOUND ( 'NONE', #144, .T. ) ;
#29 = ORIENTED_EDGE ( 'NONE', *, *, #60, .F. ) ;
#30 = ORIENTED_EDGE ( 'NONE', *, *, #48, .T. ) ;
#31 = ADVANCED_FACE ( 'NONE', ( #47, #181 ), #200, .F. ) ;
#32 = ORIENTED_EDGE ( 'NONE', *, *, #178, .T. ) ;
#33 = ORIENTED_EDGE ( 'NONE', *, *, #48, .F. ) ;
#34 = CIRCLE ( 'NONE', #203, 178.2500000000000000 ) ;
#35 = AXIS2_PLACEMENT_3D ( 'NONE', #7, #72, #186 ) ;
#36 = DIRECTION ( 'NONE',  ( 1.000000000000000000, 0.0000000000000000000, 0.0000000000000000000 ) ) ;
#37 = UNCERTAINTY_MEASURE_WITH_UNIT (LENGTH_MEASURE( 1.000000000000000100E-005 ), #205, 'distance_accuracy_value', 'NONE');
#38 = ORIENTED_EDGE ( 'NONE', *, *, #101, .T. ) ;
#39 = FILL_AREA_STYLE_COLOUR ( '', #175 ) ;
#40 = EDGE_CURVE ( 'NONE', #204, #85, #128, .T. ) ;
#41 = LINE ( 'NONE', #66, #3 ) ;
#42 = PRODUCT_DEFINITION_FORMATION_WITH_SPECIFIED_SOURCE ( 'ANY', '', #12, .NOT_KNOWN. ) ;
#43 = CARTESIAN_POINT ( 'NONE',  ( 0.0000000000000000000, 0.0000000000000000000, 0.0000000000000000000 ) ) ;
#44 =( NAMED_UNIT ( * ) PLANE_ANGLE_UNIT ( ) SI_UNIT ( $, .RADIAN. ) );
#45 = ORIENTED_EDGE ( 'NONE', *, *, #112, .F. ) ;
#46 = AXIS2_PLACEMENT_3D ( 'NONE', #55, #170, #107 ) ;
#47 = FACE_OUTER_BOUND ( 'NONE', #188, .T. ) ;
#48 = EDGE_CURVE ( 'NONE', #209, #204, #23, .T. ) ;
#49 = DIRECTION ( 'NONE',  ( 0.0000000000000000000, -0.0000000000000000000, 1.000000000000000000 ) ) ;
#50 = PRODUCT_DEFINITION_SHAPE ( 'NONE', 'NONE',  #117 ) ;
#51 = PRODUCT_RELATED_PRODUCT_CATEGORY ( 'part', '', ( #12 ) ) ;
#52 = EDGE_LOOP ( 'NONE', ( #96, #38 ) ) ;
#53 = ORIENTED_EDGE ( 'NONE', *, *, #127, .T. ) ;
#54 = AXIS2_PLACEMENT_3D ( 'NONE', #131, #111, #62 ) ;
#55 = CARTESIAN_POINT ( 'NONE',  ( 0.0000000000000000000, 2.000000000000000000, 0.0000000000000000000 ) ) ;
#56 = DIRECTION ( 'NONE',  ( 0.0000000000000000000, 1.000000000000000000, 0.0000000000000000000 ) ) ;
#57 = CARTESIAN_POINT ( 'NONE',  ( 2.305397599394892600E-014, 0.0000000000000000000, 188.2500000000000000 ) ) ;
#58 = DIRECTION ( 'NONE',  ( 0.0000000000000000000, 0.0000000000000000000, 1.000000000000000000 ) ) ;
#59 = DIRECTION ( 'NONE',  ( 0.0000000000000000000, 0.0000000000000000000, 1.000000000000000000 ) ) ;
#60 = EDGE_CURVE ( 'NONE', #212, #115, #166, .T. ) ;
#61 = DIRECTION ( 'NONE',  ( -0.0000000000000000000, -1.000000000000000000, -0.0000000000000000000 ) ) ;
#62 = DIRECTION ( 'NONE',  ( 0.0000000000000000000, -0.0000000000000000000, 1.000000000000000000 ) ) ;
#63 = SURFACE_SIDE_STYLE ('',( #133 ) ) ;
#64 = CIRCLE ( 'NONE', #86, 178.2500000000000000 ) ;
#65 = STYLED_ITEM ( 'NONE', ( #195 ), #92 ) ;
#66 = CARTESIAN_POINT ( 'NONE',  ( 2.305397599394892600E-014, 2.000000000000000000, 188.2500000000000000 ) ) ;
#67 = VECTOR ( 'NONE', #184, 1000.000000000000000 ) ;
#68 =( LENGTH_UNIT ( ) NAMED_UNIT ( * ) SI_UNIT ( .MILLI., .METRE. ) );
#69 = VECTOR ( 'NONE', #172, 1000.000000000000000 ) ;
#70 = ORIENTED_EDGE ( 'NONE', *, *, #60, .T. ) ;
#71 = ORIENTED_EDGE ( 'NONE', *, *, #130, .F. ) ;
#72 = DIRECTION ( 'NONE',  ( -0.0000000000000000000, -1.000000000000000000, -0.0000000000000000000 ) ) ;
#73 = CARTESIAN_POINT ( 'NONE',  ( 0.0000000000000000000, 0.0000000000000000000, 0.0000000000000000000 ) ) ;
#74 = EDGE_LOOP ( 'NONE', ( #121, #183, #70, #24 ) ) ;
#75 = VERTEX_POINT ( 'NONE', #185 ) ;
#76 = LINE ( 'NONE', #207, #69 ) ;
#77 = AXIS2_PLACEMENT_3D ( 'NONE', #169, #56, #82 ) ;
#78 = DIRECTION ( 'NONE',  ( 0.0000000000000000000, 1.000000000000000000, 0.0000000000000000000 ) ) ;
#79 = ORIENTED_EDGE ( 'NONE', *, *, #26, .T. ) ;
#80 = ORIENTED_EDGE ( 'NONE', *, *, #26, .F. ) ;
#81 = ADVANCED_FACE ( 'NONE', ( #173 ), #180, .T. ) ;
#82 = DIRECTION ( 'NONE',  ( 0.0000000000000000000, 0.0000000000000000000, 1.000000000000000000 ) ) ;
#83 = DIRECTION ( 'NONE',  ( 0.0000000000000000000, 0.0000000000000000000, 1.000000000000000000 ) ) ;
#84 = VERTEX_POINT ( 'NONE', #150 ) ;
#85 = VERTEX_POINT ( 'NONE', #57 ) ;
#86 = AXIS2_PLACEMENT_3D ( 'NONE', #120, #98, #2 ) ;
#87 =( NAMED_UNIT ( * ) PLANE_ANGLE_UNIT ( ) SI_UNIT ( $, .RADIAN. ) );
#88 = PRESENTATION_STYLE_ASSIGNMENT (( #106 ) ) ;
#89 = DIRECTION ( 'NONE',  ( -0.0000000000000000000, -1.000000000000000000, -0.0000000000000000000 ) ) ;
#90 = DIRECTION ( 'NONE',  ( 0.0000000000000000000, 0.0000000000000000000, 1.000000000000000000 ) ) ;
#91 = CARTESIAN_POINT ( 'NONE',  ( 0.0000000000000000000, 2.000000000000000000, 0.0000000000000000000 ) ) ;
#92 = MANIFOLD_SOLID_BREP ( 'Extrude1', #138 ) ;
#93 = CARTESIAN_POINT ( 'NONE',  ( 0.0000000000000000000, 2.000000000000000000, -178.2500000000000000 ) ) ;
#94 = ADVANCED_FACE ( 'NONE', ( #158 ), #157, .F. ) ;
#95 = AXIS2_PLACEMENT_3D ( 'NONE', #91, #161, #148 ) ;
#96 = ORIENTED_EDGE ( 'NONE', *, *, #112, .T. ) ;
#97 = DIRECTION ( 'NONE',  ( -0.0000000000000000000, -1.000000000000000000, -0.0000000000000000000 ) ) ;
#98 = DIRECTION ( 'NONE',  ( 0.0000000000000000000, 1.000000000000000000, 0.0000000000000000000 ) ) ;
#99 = PLANE ( 'NONE',  #135 ) ;
#100 = CARTESIAN_POINT ( 'NONE',  ( 0.0000000000000000000, 2.000000000000000000, 0.0000000000000000000 ) ) ;
#101 = EDGE_CURVE ( 'NONE', #75, #115, #202, .T. ) ;
#102 = CIRCLE ( 'NONE', #110, 188.2500000000000000 ) ;
#103 = SURFACE_STYLE_USAGE ( .BOTH. , #4 ) ;
#104 = DIRECTION ( 'NONE',  ( 0.0000000000000000000, 1.000000000000000000, 0.0000000000000000000 ) ) ;
#105 = AXIS2_PLACEMENT_3D ( 'NONE', #146, #83, #36 ) ;
#106 = SURFACE_STYLE_USAGE ( .BOTH. , #63 ) ;
#107 = DIRECTION ( 'NONE',  ( 0.0000000000000000000, 0.0000000000000000000, -1.000000000000000000 ) ) ;
#108 = DIRECTION ( 'NONE',  ( -0.0000000000000000000, -1.000000000000000000, -0.0000000000000000000 ) ) ;
#109 = CARTESIAN_POINT ( 'NONE',  ( 0.0000000000000000000, 0.0000000000000000000, -178.2500000000000000 ) ) ;
#110 = AXIS2_PLACEMENT_3D ( 'NONE', #100, #118, #134 ) ;
#111 = DIRECTION ( 'NONE',  ( 0.0000000000000000000, 1.000000000000000000, 0.0000000000000000000 ) ) ;
#112 = EDGE_CURVE ( 'NONE', #115, #75, #34, .T. ) ;
#113 = FACE_OUTER_BOUND ( 'NONE', #114, .T. ) ;
#114 = EDGE_LOOP ( 'NONE', ( #119, #53, #45, #29 ) ) ;
#115 = VERTEX_POINT ( 'NONE', #109 ) ;
#116 = PRODUCT_DEFINITION_CONTEXT ( 'detailed design', #25, 'design' ) ;
#117 = PRODUCT_DEFINITION ( 'UNKNOWN', '', #42, #116 ) ;
#118 = DIRECTION ( 'NONE',  ( 0.0000000000000000000, 1.000000000000000000, 0.0000000000000000000 ) ) ;
#119 = ORIENTED_EDGE ( 'NONE', *, *, #191, .T. ) ;
#120 = CARTESIAN_POINT ( 'NONE',  ( 0.0000000000000000000, 2.000000000000000000, 0.0000000000000000000 ) ) ;
#121 = ORIENTED_EDGE ( 'NONE', *, *, #127, .F. ) ;
#122 = MECHANICAL_DESIGN_GEOMETRIC_PRESENTATION_REPRESENTATION (  '', ( #165 ), #132 ) ;
#123 = FILL_AREA_STYLE_COLOUR ( '', #5 ) ;
#124 = APPLICATION_PROTOCOL_DEFINITION ( 'draft international standard', 'automotive_design', 1998, #25 ) ;
#125 = EDGE_LOOP ( 'NONE', ( #160, #190 ) ) ;
#126 = APPLICATION_PROTOCOL_DEFINITION ( 'draft international standard', 'automotive_design', 1998, #155 ) ;
#127 = EDGE_CURVE ( 'NONE', #15, #75, #76, .T. ) ;
#128 = CIRCLE ( 'NONE', #143, 188.2500000000000000 ) ;
#129 = ORIENTED_EDGE ( 'NONE', *, *, #130, .T. ) ;
#130 = EDGE_CURVE ( 'NONE', #85, #204, #199, .T. ) ;
#131 = CARTESIAN_POINT ( 'NONE',  ( 0.0000000000000000000, 0.0000000000000000000, 0.0000000000000000000 ) ) ;
#132 =( GEOMETRIC_REPRESENTATION_CONTEXT ( 3 ) GLOBAL_UNCERTAINTY_ASSIGNED_CONTEXT ( ( #182 ) ) GLOBAL_UNIT_ASSIGNED_CONTEXT ( ( #6, #44, #159 ) ) REPRESENTATION_CONTEXT ( 'NONE', 'WORKASPACE' ) );
#133 = SURFACE_STYLE_FILL_AREA ( #193 ) ;
#134 = DIRECTION ( 'NONE',  ( 0.0000000000000000000, 0.0000000000000000000, 1.000000000000000000 ) ) ;
#135 = AXIS2_PLACEMENT_3D ( 'NONE', #214, #179, #49 ) ;
#136 = DIRECTION ( 'NONE',  ( 0.0000000000000000000, 0.0000000000000000000, -1.000000000000000000 ) ) ;
#137 = DIRECTION ( 'NONE',  ( 0.0000000000000000000, 0.0000000000000000000, -1.000000000000000000 ) ) ;
#138 = CLOSED_SHELL ( 'NONE', ( #163, #81, #14, #31, #177, #94 ) ) ;
#139 = AXIS2_PLACEMENT_3D ( 'NONE', #8, #108, #137 ) ;
#140 = ORIENTED_EDGE ( 'NONE', *, *, #178, .F. ) ;
#141 = EDGE_LOOP ( 'NONE', ( #10, #32 ) ) ;
#142 = CARTESIAN_POINT ( 'NONE',  ( 0.0000000000000000000, 2.000000000000000000, 0.0000000000000000000 ) ) ;
#143 = AXIS2_PLACEMENT_3D ( 'NONE', #176, #78, #197 ) ;
#144 = EDGE_LOOP ( 'NONE', ( #80, #17, #30, #211 ) ) ;
#145 = CYLINDRICAL_SURFACE ( 'NONE', #46, 188.2500000000000000 ) ;
#146 = CARTESIAN_POINT ( 'NONE',  ( 0.0000000000000000000, 0.0000000000000000000, 0.0000000000000000000 ) ) ;
#147 = CIRCLE ( 'NONE', #95, 178.2500000000000000 ) ;
#148 = DIRECTION ( 'NONE',  ( 0.0000000000000000000, 0.0000000000000000000, 1.000000000000000000 ) ) ;
#149 = AXIS2_PLACEMENT_3D ( 'NONE', #151, #104, #58 ) ;
#150 = CARTESIAN_POINT ( 'NONE',  ( 2.305397599394892600E-014, 2.000000000000000000, 188.2500000000000000 ) ) ;
#151 = CARTESIAN_POINT ( 'NONE',  ( 0.0000000000000000000, 0.0000000000000000000, 0.0000000000000000000 ) ) ;
#152 = DIRECTION ( 'NONE',  ( 0.0000000000000000000, 1.000000000000000000, 0.0000000000000000000 ) ) ;
#153 = CARTESIAN_POINT ( 'NONE',  ( 0.0000000000000000000, 0.0000000000000000000, -188.2500000000000000 ) ) ;
#154 = FACE_OUTER_BOUND ( 'NONE', #141, .T. ) ;
#155 = APPLICATION_CONTEXT ( 'automotive_design' ) ;
#156 = PRESENTATION_LAYER_ASSIGNMENT (  '', '', ( #65 ) ) ;
#157 = CYLINDRICAL_SURFACE ( 'NONE', #139, 178.2500000000000000 ) ;
#158 = FACE_OUTER_BOUND ( 'NONE', #74, .T. ) ;
#159 =( NAMED_UNIT ( * ) SI_UNIT ( $, .STERADIAN. ) SOLID_ANGLE_UNIT ( ) );
#160 = ORIENTED_EDGE ( 'NONE', *, *, #191, .F. ) ;
#161 = DIRECTION ( 'NONE',  ( 0.0000000000000000000, 1.000000000000000000, 0.0000000000000000000 ) ) ;
#162 = CARTESIAN_POINT ( 'NONE',  ( 0.0000000000000000000, 2.000000000000000000, -188.2500000000000000 ) ) ;
#163 = ADVANCED_FACE ( 'NONE', ( #113 ), #20, .F. ) ;
#164 = CARTESIAN_POINT ( 'NONE',  ( 2.182932919480156900E-014, 2.000000000000000000, 178.2500000000000000 ) ) ;
#165 = STYLED_ITEM ( 'NONE', ( #88 ), #196 ) ;
#166 = LINE ( 'NONE', #93, #67 ) ;
#167 = MECHANICAL_DESIGN_GEOMETRIC_PRESENTATION_REPRESENTATION (  '', ( #65 ), #9 ) ;
#168 =( NAMED_UNIT ( * ) SI_UNIT ( $, .STERADIAN. ) SOLID_ANGLE_UNIT ( ) );
#169 = CARTESIAN_POINT ( 'NONE',  ( 0.0000000000000000000, 2.000000000000000000, 0.0000000000000000000 ) ) ;
#170 = DIRECTION ( 'NONE',  ( -0.0000000000000000000, -1.000000000000000000, -0.0000000000000000000 ) ) ;
#171 = UNCERTAINTY_MEASURE_WITH_UNIT (LENGTH_MEASURE( 1.000000000000000100E-005 ), #68, 'distance_accuracy_value', 'NONE');
#172 = DIRECTION ( 'NONE',  ( -0.0000000000000000000, -1.000000000000000000, -0.0000000000000000000 ) ) ;
#173 = FACE_OUTER_BOUND ( 'NONE', #27, .T. ) ;
#174 = PRESENTATION_LAYER_ASSIGNMENT (  '', '', ( #165 ) ) ;
#175 = COLOUR_RGB ( '',0.5372549019607842900, 0.3490196078431372400, 0.3372549019607843400 ) ;
#176 = CARTESIAN_POINT ( 'NONE',  ( 0.0000000000000000000, 0.0000000000000000000, 0.0000000000000000000 ) ) ;
#177 = ADVANCED_FACE ( 'NONE', ( #28 ), #145, .T. ) ;
#178 = EDGE_CURVE ( 'NONE', #84, #209, #192, .T. ) ;
#179 = DIRECTION ( 'NONE',  ( 0.0000000000000000000, 1.000000000000000000, 0.0000000000000000000 ) ) ;
#180 = CYLINDRICAL_SURFACE ( 'NONE', #213, 188.2500000000000000 ) ;
#181 = FACE_BOUND ( 'NONE', #52, .T. ) ;
#182 = UNCERTAINTY_MEASURE_WITH_UNIT (LENGTH_MEASURE( 1.000000000000000100E-005 ), #6, 'distance_accuracy_value', 'NONE');
#183 = ORIENTED_EDGE ( 'NONE', *, *, #198, .T. ) ;
#184 = DIRECTION ( 'NONE',  ( -0.0000000000000000000, -1.000000000000000000, -0.0000000000000000000 ) ) ;
#185 = CARTESIAN_POINT ( 'NONE',  ( 2.182932919480156900E-014, 0.0000000000000000000, 178.2500000000000000 ) ) ;
#186 = DIRECTION ( 'NONE',  ( 0.0000000000000000000, 0.0000000000000000000, -1.000000000000000000 ) ) ;
#187 = VECTOR ( 'NONE', #61, 1000.000000000000000 ) ;
#188 = EDGE_LOOP ( 'NONE', ( #208, #71 ) ) ;
#189 = DIRECTION ( 'NONE',  ( 0.0000000000000000000, 1.000000000000000000, 0.0000000000000000000 ) ) ;
#190 = ORIENTED_EDGE ( 'NONE', *, *, #198, .F. ) ;
#191 = EDGE_CURVE ( 'NONE', #212, #15, #64, .T. ) ;
#192 = CIRCLE ( 'NONE', #77, 188.2500000000000000 ) ;
#193 = FILL_AREA_STYLE ('',( #39 ) ) ;
#194 = PRODUCT_CONTEXT ( 'NONE', #155, 'mechanical' ) ;
#195 = PRESENTATION_STYLE_ASSIGNMENT (( #103 ) ) ;
#196 = ADVANCED_BREP_SHAPE_REPRESENTATION ( 'Hositrad_CG350-ISO3669', ( #92, #105 ), #16 ) ;
#197 = DIRECTION ( 'NONE',  ( 0.0000000000000000000, 0.0000000000000000000, 1.000000000000000000 ) ) ;
#198 = EDGE_CURVE ( 'NONE', #15, #212, #147, .T. ) ;
#199 = CIRCLE ( 'NONE', #149, 188.2500000000000000 ) ;
#200 = PLANE ( 'NONE',  #54 ) ;
#201 =( NAMED_UNIT ( * ) SI_UNIT ( $, .STERADIAN. ) SOLID_ANGLE_UNIT ( ) );
#202 = CIRCLE ( 'NONE', #19, 178.2500000000000000 ) ;
#203 = AXIS2_PLACEMENT_3D ( 'NONE', #43, #152, #59 ) ;
#204 = VERTEX_POINT ( 'NONE', #153 ) ;
#205 =( LENGTH_UNIT ( ) NAMED_UNIT ( * ) SI_UNIT ( .MILLI., .METRE. ) );
#206 = SHAPE_DEFINITION_REPRESENTATION ( #50, #196 ) ;
#207 = CARTESIAN_POINT ( 'NONE',  ( 2.182932919480156900E-014, 2.000000000000000000, 178.2500000000000000 ) ) ;
#208 = ORIENTED_EDGE ( 'NONE', *, *, #40, .F. ) ;
#209 = VERTEX_POINT ( 'NONE', #18 ) ;
#210 = EDGE_CURVE ( 'NONE', #209, #84, #102, .T. ) ;
#211 = ORIENTED_EDGE ( 'NONE', *, *, #40, .T. ) ;
#212 = VERTEX_POINT ( 'NONE', #21 ) ;
#213 = AXIS2_PLACEMENT_3D ( 'NONE', #142, #89, #136 ) ;
#214 = CARTESIAN_POINT ( 'NONE',  ( 0.0000000000000000000, 2.000000000000000000, 0.0000000000000000000 ) ) ;
ENDSEC;
END-ISO-10303-21;
