ISO-10303-21;
HEADER;
FILE_DESCRIPTION (( 'STEP AP214' ),
    '1' );
FILE_NAME ('Hositrad_CG38.STEP',
    '2012-07-05T14:44:29',
    ( '' ),
    ( '' ),
    'SwSTEP 2.0',
    'SolidWorks 2012',
    '' );
FILE_SCHEMA (( 'AUTOMOTIVE_DESIGN' ));
ENDSEC;

DATA;
#1 = CARTESIAN_POINT ( 'NONE',  ( 0.0000000000000000000, 0.0000000000000000000, 0.0000000000000000000 ) ) ;
#2 = DIRECTION ( 'NONE',  ( -0.0000000000000000000, -1.000000000000000000, -0.0000000000000000000 ) ) ;
#3 = CARTESIAN_POINT ( 'NONE',  ( 0.0000000000000000000, 2.000000000000000000, -24.05000000000000100 ) ) ;
#4 = PLANE ( 'NONE',  #45 ) ;
#5 = DIRECTION ( 'NONE',  ( 0.0000000000000000000, 1.000000000000000000, 0.0000000000000000000 ) ) ;
#6 = CARTESIAN_POINT ( 'NONE',  ( 0.0000000000000000000, 2.000000000000000000, 0.0000000000000000000 ) ) ;
#7 = DIRECTION ( 'NONE',  ( 0.0000000000000000000, 1.000000000000000000, 0.0000000000000000000 ) ) ;
#8 = DIRECTION ( 'NONE',  ( 0.0000000000000000000, -0.0000000000000000000, 1.000000000000000000 ) ) ;
#9 = CARTESIAN_POINT ( 'NONE',  ( 0.0000000000000000000, 0.0000000000000000000, 0.0000000000000000000 ) ) ;
#10 = DIRECTION ( 'NONE',  ( -0.0000000000000000000, -1.000000000000000000, -0.0000000000000000000 ) ) ;
#11 = PLANE ( 'NONE',  #47 ) ;
#12 = DIRECTION ( 'NONE',  ( 0.0000000000000000000, 0.0000000000000000000, -1.000000000000000000 ) ) ;
#13 = DIRECTION ( 'NONE',  ( 0.0000000000000000000, -0.0000000000000000000, 1.000000000000000000 ) ) ;
#14 = CARTESIAN_POINT ( 'NONE',  ( 0.0000000000000000000, 2.000000000000000000, 0.0000000000000000000 ) ) ;
#15 = DIRECTION ( 'NONE',  ( 0.0000000000000000000, 0.0000000000000000000, -1.000000000000000000 ) ) ;
#16 = CARTESIAN_POINT ( 'NONE',  ( 0.0000000000000000000, 2.000000000000000000, 0.0000000000000000000 ) ) ;
#17 = DIRECTION ( 'NONE',  ( -0.0000000000000000000, -1.000000000000000000, -0.0000000000000000000 ) ) ;
#18 =( NAMED_UNIT ( * ) PLANE_ANGLE_UNIT ( ) SI_UNIT ( $, .RADIAN. ) );
#19 =( NAMED_UNIT ( * ) SI_UNIT ( $, .STERADIAN. ) SOLID_ANGLE_UNIT ( ) );
#20 = APPLICATION_PROTOCOL_DEFINITION ( 'draft international standard', 'automotive_design', 1998, #21 ) ;
#21 = APPLICATION_CONTEXT ( 'automotive_design' ) ;
#22 = FILL_AREA_STYLE ('',( #75 ) ) ;
#23 = SURFACE_SIDE_STYLE ('',( #149 ) ) ;
#24 = SURFACE_STYLE_USAGE ( .BOTH. , #23 ) ;
#25 =( LENGTH_UNIT ( ) NAMED_UNIT ( * ) SI_UNIT ( .MILLI., .METRE. ) );
#26 =( NAMED_UNIT ( * ) PLANE_ANGLE_UNIT ( ) SI_UNIT ( $, .RADIAN. ) );
#27 =( NAMED_UNIT ( * ) SI_UNIT ( $, .STERADIAN. ) SOLID_ANGLE_UNIT ( ) );
#28 = CARTESIAN_POINT ( 'NONE',  ( 0.0000000000000000000, 0.0000000000000000000, 0.0000000000000000000 ) ) ;
#29 = DIRECTION ( 'NONE',  ( 0.0000000000000000000, 0.0000000000000000000, 1.000000000000000000 ) ) ;
#30 = DIRECTION ( 'NONE',  ( 1.000000000000000000, 0.0000000000000000000, 0.0000000000000000000 ) ) ;
#31 = PRODUCT_CONTEXT ( 'NONE', #21, 'mechanical' ) ;
#32 = APPLICATION_CONTEXT ( 'automotive_design' ) ;
#33 = APPLICATION_PROTOCOL_DEFINITION ( 'draft international standard', 'automotive_design', 1998, #32 ) ;
#34 = EDGE_CURVE ( 'NONE', #177, #142, #178, .T. ) ;
#35 = EDGE_CURVE ( 'NONE', #176, #201, #146, .T. ) ;
#36 = EDGE_CURVE ( 'NONE', #194, #176, #132, .T. ) ;
#37 = EDGE_CURVE ( 'NONE', #134, #142, #171, .T. ) ;
#38 = EDGE_CURVE ( 'NONE', #155, #194, #170, .T. ) ;
#39 = AXIS2_PLACEMENT_3D ( 'NONE', #204, #205, #206 ) ;
#40 = AXIS2_PLACEMENT_3D ( 'NONE', #1, #97, #98 ) ;
#41 = AXIS2_PLACEMENT_3D ( 'NONE', #100, #101, #102 ) ;
#42 = AXIS2_PLACEMENT_3D ( 'NONE', #106, #107, #108 ) ;
#43 = AXIS2_PLACEMENT_3D ( 'NONE', #104, #99, #105 ) ;
#44 = AXIS2_PLACEMENT_3D ( 'NONE', #109, #110, #103 ) ;
#45 = AXIS2_PLACEMENT_3D ( 'NONE', #6, #7, #8 ) ;
#46 = AXIS2_PLACEMENT_3D ( 'NONE', #114, #115, #116 ) ;
#47 = AXIS2_PLACEMENT_3D ( 'NONE', #9, #5, #13 ) ;
#48 = AXIS2_PLACEMENT_3D ( 'NONE', #119, #120, #121 ) ;
#49 = AXIS2_PLACEMENT_3D ( 'NONE', #14, #10, #12 ) ;
#50 = AXIS2_PLACEMENT_3D ( 'NONE', #16, #17, #15 ) ;
#51 = AXIS2_PLACEMENT_3D ( 'NONE', #124, #125, #126 ) ;
#52 = AXIS2_PLACEMENT_3D ( 'NONE', #69, #70, #71 ) ;
#53 = STYLED_ITEM ( 'NONE', ( #162 ), #211 ) ;
#54 = PRESENTATION_LAYER_ASSIGNMENT (  '', '', ( #53 ) ) ;
#55 = MECHANICAL_DESIGN_GEOMETRIC_PRESENTATION_REPRESENTATION (  '', ( #53 ), #56 ) ;
#56 =( GEOMETRIC_REPRESENTATION_CONTEXT ( 3 ) GLOBAL_UNCERTAINTY_ASSIGNED_CONTEXT ( ( #214 ) ) GLOBAL_UNIT_ASSIGNED_CONTEXT ( ( #80, #81, #82 ) ) REPRESENTATION_CONTEXT ( 'NONE', 'WORKASPACE' ) );
#57 =( GEOMETRIC_REPRESENTATION_CONTEXT ( 3 ) GLOBAL_UNCERTAINTY_ASSIGNED_CONTEXT ( ( #213 ) ) GLOBAL_UNIT_ASSIGNED_CONTEXT ( ( #83, #18, #19 ) ) REPRESENTATION_CONTEXT ( 'NONE', 'WORKASPACE' ) );
#58 = STYLED_ITEM ( 'NONE', ( #161 ), #212 ) ;
#59 = PRESENTATION_LAYER_ASSIGNMENT (  '', '', ( #58 ) ) ;
#60 = MECHANICAL_DESIGN_GEOMETRIC_PRESENTATION_REPRESENTATION (  '', ( #58 ), #61 ) ;
#61 =( GEOMETRIC_REPRESENTATION_CONTEXT ( 3 ) GLOBAL_UNCERTAINTY_ASSIGNED_CONTEXT ( ( #210 ) ) GLOBAL_UNIT_ASSIGNED_CONTEXT ( ( #25, #26, #27 ) ) REPRESENTATION_CONTEXT ( 'NONE', 'WORKASPACE' ) );
#62 = AXIS2_PLACEMENT_3D ( 'NONE', #28, #29, #30 ) ;
#63 = PRODUCT_DEFINITION ( 'UNKNOWN', '', #64, #84 ) ;
#64 = PRODUCT_DEFINITION_FORMATION_WITH_SPECIFIED_SOURCE ( 'ANY', '', #86, .NOT_KNOWN. ) ;
#65 = PRODUCT_RELATED_PRODUCT_CATEGORY ( 'part', '', ( #86 ) ) ;
#66 = EDGE_CURVE ( 'NONE', #155, #201, #169, .T. ) ;
#67 = EDGE_CURVE ( 'NONE', #164, #177, #185, .T. ) ;
#68 = CARTESIAN_POINT ( 'NONE',  ( 2.259473344426867100E-015, 0.0000000000000000000, 18.45000000000000300 ) ) ;
#69 = CARTESIAN_POINT ( 'NONE',  ( 0.0000000000000000000, 2.000000000000000000, 0.0000000000000000000 ) ) ;
#70 = DIRECTION ( 'NONE',  ( 0.0000000000000000000, 1.000000000000000000, 0.0000000000000000000 ) ) ;
#71 = DIRECTION ( 'NONE',  ( 0.0000000000000000000, 0.0000000000000000000, 1.000000000000000000 ) ) ;
#72 = CARTESIAN_POINT ( 'NONE',  ( 2.945275551949384600E-015, 2.000000000000000000, 24.05000000000000100 ) ) ;
#73 = FILL_AREA_STYLE_COLOUR ( '', #148 ) ;
#74 = CARTESIAN_POINT ( 'NONE',  ( 0.0000000000000000000, 2.000000000000000000, -24.05000000000000100 ) ) ;
#75 = FILL_AREA_STYLE_COLOUR ( '', #168 ) ;
#76 = CARTESIAN_POINT ( 'NONE',  ( 2.259473344426867100E-015, 2.000000000000000000, 18.45000000000000300 ) ) ;
#77 = FILL_AREA_STYLE ('',( #73 ) ) ;
#78 = SURFACE_SIDE_STYLE ('',( #163 ) ) ;
#79 = SURFACE_STYLE_USAGE ( .BOTH. , #78 ) ;
#80 =( LENGTH_UNIT ( ) NAMED_UNIT ( * ) SI_UNIT ( .MILLI., .METRE. ) );
#81 =( NAMED_UNIT ( * ) PLANE_ANGLE_UNIT ( ) SI_UNIT ( $, .RADIAN. ) );
#82 =( NAMED_UNIT ( * ) SI_UNIT ( $, .STERADIAN. ) SOLID_ANGLE_UNIT ( ) );
#83 =( LENGTH_UNIT ( ) NAMED_UNIT ( * ) SI_UNIT ( .MILLI., .METRE. ) );
#84 = PRODUCT_DEFINITION_CONTEXT ( 'detailed design', #32, 'design' ) ;
#85 = PRODUCT_DEFINITION_SHAPE ( 'NONE', 'NONE',  #63 ) ;
#86 = PRODUCT ( 'Hositrad_CG38', 'Hositrad_CG38', '', ( #31 ) ) ;
#87 = ADVANCED_FACE ( 'NONE', ( #199 ), #139, .F. ) ;
#88 = ADVANCED_FACE ( 'NONE', ( #175 ), #157, .F. ) ;
#89 = ADVANCED_FACE ( 'NONE', ( #166, #135 ), #4, .T. ) ;
#90 = ADVANCED_FACE ( 'NONE', ( #151, #172 ), #11, .F. ) ;
#91 = ADVANCED_FACE ( 'NONE', ( #128 ), #165, .T. ) ;
#92 = ADVANCED_FACE ( 'NONE', ( #152 ), #195, .T. ) ;
#93 = EDGE_CURVE ( 'NONE', #177, #164, #138, .T. ) ;
#94 = EDGE_CURVE ( 'NONE', #142, #134, #150, .T. ) ;
#95 = EDGE_CURVE ( 'NONE', #201, #176, #167, .T. ) ;
#96 = EDGE_CURVE ( 'NONE', #164, #134, #131, .T. ) ;
#97 = DIRECTION ( 'NONE',  ( 0.0000000000000000000, 1.000000000000000000, 0.0000000000000000000 ) ) ;
#98 = DIRECTION ( 'NONE',  ( 0.0000000000000000000, 0.0000000000000000000, 1.000000000000000000 ) ) ;
#99 = DIRECTION ( 'NONE',  ( -0.0000000000000000000, -1.000000000000000000, -0.0000000000000000000 ) ) ;
#100 = CARTESIAN_POINT ( 'NONE',  ( 0.0000000000000000000, 2.000000000000000000, 0.0000000000000000000 ) ) ;
#101 = DIRECTION ( 'NONE',  ( 0.0000000000000000000, 1.000000000000000000, 0.0000000000000000000 ) ) ;
#102 = DIRECTION ( 'NONE',  ( 0.0000000000000000000, 0.0000000000000000000, 1.000000000000000000 ) ) ;
#103 = DIRECTION ( 'NONE',  ( 0.0000000000000000000, 0.0000000000000000000, -1.000000000000000000 ) ) ;
#104 = CARTESIAN_POINT ( 'NONE',  ( 0.0000000000000000000, 2.000000000000000000, 0.0000000000000000000 ) ) ;
#105 = DIRECTION ( 'NONE',  ( 0.0000000000000000000, 0.0000000000000000000, -1.000000000000000000 ) ) ;
#106 = CARTESIAN_POINT ( 'NONE',  ( 0.0000000000000000000, 2.000000000000000000, 0.0000000000000000000 ) ) ;
#107 = DIRECTION ( 'NONE',  ( 0.0000000000000000000, 1.000000000000000000, 0.0000000000000000000 ) ) ;
#108 = DIRECTION ( 'NONE',  ( 0.0000000000000000000, 0.0000000000000000000, 1.000000000000000000 ) ) ;
#109 = CARTESIAN_POINT ( 'NONE',  ( 0.0000000000000000000, 2.000000000000000000, 0.0000000000000000000 ) ) ;
#110 = DIRECTION ( 'NONE',  ( -0.0000000000000000000, -1.000000000000000000, -0.0000000000000000000 ) ) ;
#111 = CARTESIAN_POINT ( 'NONE',  ( 0.0000000000000000000, 0.0000000000000000000, -18.45000000000000300 ) ) ;
#112 = SHAPE_DEFINITION_REPRESENTATION ( #85, #212 ) ;
#113 = EDGE_CURVE ( 'NONE', #194, #155, #147, .T. ) ;
#114 = CARTESIAN_POINT ( 'NONE',  ( 0.0000000000000000000, 2.000000000000000000, 0.0000000000000000000 ) ) ;
#115 = DIRECTION ( 'NONE',  ( 0.0000000000000000000, 1.000000000000000000, 0.0000000000000000000 ) ) ;
#116 = DIRECTION ( 'NONE',  ( 0.0000000000000000000, 0.0000000000000000000, 1.000000000000000000 ) ) ;
#117 = CARTESIAN_POINT ( 'NONE',  ( 2.945275551949384600E-015, 2.000000000000000000, 24.05000000000000100 ) ) ;
#118 = DIRECTION ( 'NONE',  ( -0.0000000000000000000, -1.000000000000000000, -0.0000000000000000000 ) ) ;
#119 = CARTESIAN_POINT ( 'NONE',  ( 0.0000000000000000000, 0.0000000000000000000, 0.0000000000000000000 ) ) ;
#120 = DIRECTION ( 'NONE',  ( 0.0000000000000000000, 1.000000000000000000, 0.0000000000000000000 ) ) ;
#121 = DIRECTION ( 'NONE',  ( 0.0000000000000000000, 0.0000000000000000000, 1.000000000000000000 ) ) ;
#122 = CARTESIAN_POINT ( 'NONE',  ( 0.0000000000000000000, 2.000000000000000000, -18.45000000000000300 ) ) ;
#123 = CARTESIAN_POINT ( 'NONE',  ( 2.945275551949384600E-015, 0.0000000000000000000, 24.05000000000000100 ) ) ;
#124 = CARTESIAN_POINT ( 'NONE',  ( 0.0000000000000000000, 0.0000000000000000000, 0.0000000000000000000 ) ) ;
#125 = DIRECTION ( 'NONE',  ( 0.0000000000000000000, 1.000000000000000000, 0.0000000000000000000 ) ) ;
#126 = DIRECTION ( 'NONE',  ( 0.0000000000000000000, 0.0000000000000000000, 1.000000000000000000 ) ) ;
#127 = CARTESIAN_POINT ( 'NONE',  ( 0.0000000000000000000, 0.0000000000000000000, -24.05000000000000100 ) ) ;
#128 = FACE_OUTER_BOUND ( 'NONE', #181, .T. ) ;
#129 = ORIENTED_EDGE ( 'NONE', *, *, #67, .T. ) ;
#130 = VECTOR ( 'NONE', #209, 1000.000000000000000 ) ;
#131 = LINE ( 'NONE', #117, #200 ) ;
#132 = LINE ( 'NONE', #203, #140 ) ;
#133 = ORIENTED_EDGE ( 'NONE', *, *, #93, .F. ) ;
#134 = VERTEX_POINT ( 'NONE', #123 ) ;
#135 = FACE_BOUND ( 'NONE', #180, .T. ) ;
#136 = ORIENTED_EDGE ( 'NONE', *, *, #93, .T. ) ;
#137 = CLOSED_SHELL ( 'NONE', ( #87, #92, #89, #90, #91, #88 ) ) ;
#138 = CIRCLE ( 'NONE', #46, 24.05000000000000100 ) ;
#139 = CYLINDRICAL_SURFACE ( 'NONE', #43, 18.45000000000000300 ) ;
#140 = VECTOR ( 'NONE', #207, 1000.000000000000000 ) ;
#141 = ORIENTED_EDGE ( 'NONE', *, *, #66, .T. ) ;
#142 = VERTEX_POINT ( 'NONE', #127 ) ;
#143 = ORIENTED_EDGE ( 'NONE', *, *, #36, .T. ) ;
#144 = ORIENTED_EDGE ( 'NONE', *, *, #37, .F. ) ;
#145 = ORIENTED_EDGE ( 'NONE', *, *, #67, .F. ) ;
#146 = CIRCLE ( 'NONE', #39, 18.45000000000000300 ) ;
#147 = CIRCLE ( 'NONE', #52, 18.45000000000000300 ) ;
#148 = COLOUR_RGB ( '',0.9882352941176471000, 0.6274509803921568500, 0.5176470588235293500 ) ;
#149 = SURFACE_STYLE_FILL_AREA ( #22 ) ;
#150 = CIRCLE ( 'NONE', #48, 24.05000000000000100 ) ;
#151 = FACE_OUTER_BOUND ( 'NONE', #189, .T. ) ;
#152 = FACE_OUTER_BOUND ( 'NONE', #198, .T. ) ;
#153 = VECTOR ( 'NONE', #2, 1000.000000000000000 ) ;
#154 = ORIENTED_EDGE ( 'NONE', *, *, #94, .T. ) ;
#155 = VERTEX_POINT ( 'NONE', #122 ) ;
#156 = ORIENTED_EDGE ( 'NONE', *, *, #35, .T. ) ;
#157 = CYLINDRICAL_SURFACE ( 'NONE', #44, 18.45000000000000300 ) ;
#158 = ORIENTED_EDGE ( 'NONE', *, *, #38, .F. ) ;
#159 = ORIENTED_EDGE ( 'NONE', *, *, #38, .T. ) ;
#160 = EDGE_LOOP ( 'NONE', ( #159, #143, #190, #187 ) ) ;
#161 = PRESENTATION_STYLE_ASSIGNMENT (( #24 ) ) ;
#162 = PRESENTATION_STYLE_ASSIGNMENT (( #79 ) ) ;
#163 = SURFACE_STYLE_FILL_AREA ( #77 ) ;
#164 = VERTEX_POINT ( 'NONE', #72 ) ;
#165 = CYLINDRICAL_SURFACE ( 'NONE', #49, 24.05000000000000100 ) ;
#166 = FACE_OUTER_BOUND ( 'NONE', #186, .T. ) ;
#167 = CIRCLE ( 'NONE', #51, 18.45000000000000300 ) ;
#168 = COLOUR_RGB ( '',0.5372549019607842900, 0.3490196078431372400, 0.3372549019607843400 ) ;
#169 = LINE ( 'NONE', #208, #130 ) ;
#170 = CIRCLE ( 'NONE', #41, 18.45000000000000300 ) ;
#171 = CIRCLE ( 'NONE', #40, 24.05000000000000100 ) ;
#172 = FACE_BOUND ( 'NONE', #182, .T. ) ;
#173 = ORIENTED_EDGE ( 'NONE', *, *, #113, .T. ) ;
#174 = ORIENTED_EDGE ( 'NONE', *, *, #36, .F. ) ;
#175 = FACE_OUTER_BOUND ( 'NONE', #196, .T. ) ;
#176 = VERTEX_POINT ( 'NONE', #68 ) ;
#177 = VERTEX_POINT ( 'NONE', #74 ) ;
#178 = LINE ( 'NONE', #3, #153 ) ;
#179 = ORIENTED_EDGE ( 'NONE', *, *, #95, .T. ) ;
#180 = EDGE_LOOP ( 'NONE', ( #158, #183 ) ) ;
#181 = EDGE_LOOP ( 'NONE', ( #197, #133, #192, #154 ) ) ;
#182 = EDGE_LOOP ( 'NONE', ( #179, #156 ) ) ;
#183 = ORIENTED_EDGE ( 'NONE', *, *, #113, .F. ) ;
#184 = ORIENTED_EDGE ( 'NONE', *, *, #34, .F. ) ;
#185 = CIRCLE ( 'NONE', #42, 24.05000000000000100 ) ;
#186 = EDGE_LOOP ( 'NONE', ( #136, #129 ) ) ;
#187 = ORIENTED_EDGE ( 'NONE', *, *, #66, .F. ) ;
#188 = ORIENTED_EDGE ( 'NONE', *, *, #35, .F. ) ;
#189 = EDGE_LOOP ( 'NONE', ( #191, #144 ) ) ;
#190 = ORIENTED_EDGE ( 'NONE', *, *, #95, .F. ) ;
#191 = ORIENTED_EDGE ( 'NONE', *, *, #94, .F. ) ;
#192 = ORIENTED_EDGE ( 'NONE', *, *, #34, .T. ) ;
#193 = ORIENTED_EDGE ( 'NONE', *, *, #96, .T. ) ;
#194 = VERTEX_POINT ( 'NONE', #76 ) ;
#195 = CYLINDRICAL_SURFACE ( 'NONE', #50, 24.05000000000000100 ) ;
#196 = EDGE_LOOP ( 'NONE', ( #174, #173, #141, #188 ) ) ;
#197 = ORIENTED_EDGE ( 'NONE', *, *, #96, .F. ) ;
#198 = EDGE_LOOP ( 'NONE', ( #145, #193, #202, #184 ) ) ;
#199 = FACE_OUTER_BOUND ( 'NONE', #160, .T. ) ;
#200 = VECTOR ( 'NONE', #118, 1000.000000000000000 ) ;
#201 = VERTEX_POINT ( 'NONE', #111 ) ;
#202 = ORIENTED_EDGE ( 'NONE', *, *, #37, .T. ) ;
#203 = CARTESIAN_POINT ( 'NONE',  ( 2.259473344426867100E-015, 2.000000000000000000, 18.45000000000000300 ) ) ;
#204 = CARTESIAN_POINT ( 'NONE',  ( 0.0000000000000000000, 0.0000000000000000000, 0.0000000000000000000 ) ) ;
#205 = DIRECTION ( 'NONE',  ( 0.0000000000000000000, 1.000000000000000000, 0.0000000000000000000 ) ) ;
#206 = DIRECTION ( 'NONE',  ( 0.0000000000000000000, 0.0000000000000000000, 1.000000000000000000 ) ) ;
#207 = DIRECTION ( 'NONE',  ( -0.0000000000000000000, -1.000000000000000000, -0.0000000000000000000 ) ) ;
#208 = CARTESIAN_POINT ( 'NONE',  ( 0.0000000000000000000, 2.000000000000000000, -18.45000000000000300 ) ) ;
#209 = DIRECTION ( 'NONE',  ( -0.0000000000000000000, -1.000000000000000000, -0.0000000000000000000 ) ) ;
#210 = UNCERTAINTY_MEASURE_WITH_UNIT (LENGTH_MEASURE( 1.000000000000000100E-005 ), #25, 'distance_accuracy_value', 'NONE');
#211 = MANIFOLD_SOLID_BREP ( 'Extrude1', #137 ) ;
#212 = ADVANCED_BREP_SHAPE_REPRESENTATION ( 'Hositrad_CG38', ( #211, #62 ), #57 ) ;
#213 = UNCERTAINTY_MEASURE_WITH_UNIT (LENGTH_MEASURE( 1.000000000000000100E-005 ), #83, 'distance_accuracy_value', 'NONE');
#214 = UNCERTAINTY_MEASURE_WITH_UNIT (LENGTH_MEASURE( 1.000000000000000100E-005 ), #80, 'distance_accuracy_value', 'NONE');
ENDSEC;
END-ISO-10303-21;
