ISO-10303-21;
HEADER;
FILE_DESCRIPTION (( 'STEP AP214' ),
    '1' );
FILE_NAME ('Hositrad_CG40.STEP',
    '2012-07-05T14:44:55',
    ( '' ),
    ( '' ),
    'SwSTEP 2.0',
    'SolidWorks 2012',
    '' );
FILE_SCHEMA (( 'AUTOMOTIVE_DESIGN' ));
ENDSEC;

DATA;
#1 = EDGE_CURVE ( 'NONE', #160, #147, #157, .T. ) ;
#2 = EDGE_CURVE ( 'NONE', #177, #144, #143, .T. ) ;
#3 = EDGE_CURVE ( 'NONE', #148, #147, #182, .T. ) ;
#4 = EDGE_CURVE ( 'NONE', #191, #148, #171, .T. ) ;
#5 = AXIS2_PLACEMENT_3D ( 'NONE', #72, #104, #69 ) ;
#6 = AXIS2_PLACEMENT_3D ( 'NONE', #67, #84, #63 ) ;
#7 = AXIS2_PLACEMENT_3D ( 'NONE', #50, #42, #118 ) ;
#8 = AXIS2_PLACEMENT_3D ( 'NONE', #112, #111, #110 ) ;
#9 = AXIS2_PLACEMENT_3D ( 'NONE', #103, #102, #101 ) ;
#10 = AXIS2_PLACEMENT_3D ( 'NONE', #97, #96, #95 ) ;
#11 = AXIS2_PLACEMENT_3D ( 'NONE', #65, #64, #61 ) ;
#12 = AXIS2_PLACEMENT_3D ( 'NONE', #98, #99, #100 ) ;
#13 = AXIS2_PLACEMENT_3D ( 'NONE', #94, #105, #89 ) ;
#14 = AXIS2_PLACEMENT_3D ( 'NONE', #88, #93, #90 ) ;
#15 = AXIS2_PLACEMENT_3D ( 'NONE', #86, #87, #80 ) ;
#16 = AXIS2_PLACEMENT_3D ( 'NONE', #57, #56, #55 ) ;
#17 = AXIS2_PLACEMENT_3D ( 'NONE', #79, #85, #81 ) ;
#18 = AXIS2_PLACEMENT_3D ( 'NONE', #77, #75, #78 ) ;
#19 = STYLED_ITEM ( 'NONE', ( #206 ), #211 ) ;
#20 = PRESENTATION_LAYER_ASSIGNMENT (  '', '', ( #19 ) ) ;
#21 = MECHANICAL_DESIGN_GEOMETRIC_PRESENTATION_REPRESENTATION (  '', ( #19 ), #22 ) ;
#22 =( GEOMETRIC_REPRESENTATION_CONTEXT ( 3 ) GLOBAL_UNCERTAINTY_ASSIGNED_CONTEXT ( ( #212 ) ) GLOBAL_UNIT_ASSIGNED_CONTEXT ( ( #44, #43, #41 ) ) REPRESENTATION_CONTEXT ( 'NONE', 'WORKASPACE' ) );
#23 =( GEOMETRIC_REPRESENTATION_CONTEXT ( 3 ) GLOBAL_UNCERTAINTY_ASSIGNED_CONTEXT ( ( #214 ) ) GLOBAL_UNIT_ASSIGNED_CONTEXT ( ( #49, #40, #39 ) ) REPRESENTATION_CONTEXT ( 'NONE', 'WORKASPACE' ) );
#24 = STYLED_ITEM ( 'NONE', ( #152 ), #210 ) ;
#25 = PRESENTATION_LAYER_ASSIGNMENT (  '', '', ( #24 ) ) ;
#26 = MECHANICAL_DESIGN_GEOMETRIC_PRESENTATION_REPRESENTATION (  '', ( #24 ), #27 ) ;
#27 =( GEOMETRIC_REPRESENTATION_CONTEXT ( 3 ) GLOBAL_UNCERTAINTY_ASSIGNED_CONTEXT ( ( #213 ) ) GLOBAL_UNIT_ASSIGNED_CONTEXT ( ( #38, #59, #74 ) ) REPRESENTATION_CONTEXT ( 'NONE', 'WORKASPACE' ) );
#28 = AXIS2_PLACEMENT_3D ( 'NONE', #62, #109, #115 ) ;
#29 = PRODUCT_DEFINITION ( 'UNKNOWN', '', #30, #32 ) ;
#30 = PRODUCT_DEFINITION_FORMATION_WITH_SPECIFIED_SOURCE ( 'ANY', '', #119, .NOT_KNOWN. ) ;
#31 = PRODUCT_RELATED_PRODUCT_CATEGORY ( 'part', '', ( #119 ) ) ;
#32 = PRODUCT_DEFINITION_CONTEXT ( 'detailed design', #114, 'design' ) ;
#33 = PRODUCT_DEFINITION_SHAPE ( 'NONE', 'NONE',  #29 ) ;
#34 = SURFACE_SIDE_STYLE ('',( #175 ) ) ;
#35 = FILL_AREA_STYLE ('',( #48 ) ) ;
#36 = APPLICATION_CONTEXT ( 'automotive_design' ) ;
#37 = APPLICATION_PROTOCOL_DEFINITION ( 'draft international standard', 'automotive_design', 1998, #36 ) ;
#38 =( LENGTH_UNIT ( ) NAMED_UNIT ( * ) SI_UNIT ( .MILLI., .METRE. ) );
#39 =( NAMED_UNIT ( * ) SI_UNIT ( $, .STERADIAN. ) SOLID_ANGLE_UNIT ( ) );
#40 =( NAMED_UNIT ( * ) PLANE_ANGLE_UNIT ( ) SI_UNIT ( $, .RADIAN. ) );
#41 =( NAMED_UNIT ( * ) SI_UNIT ( $, .STERADIAN. ) SOLID_ANGLE_UNIT ( ) );
#42 = DIRECTION ( 'NONE',  ( 0.0000000000000000000, 1.000000000000000000, 0.0000000000000000000 ) ) ;
#43 =( NAMED_UNIT ( * ) PLANE_ANGLE_UNIT ( ) SI_UNIT ( $, .RADIAN. ) );
#44 =( LENGTH_UNIT ( ) NAMED_UNIT ( * ) SI_UNIT ( .MILLI., .METRE. ) );
#45 = SURFACE_STYLE_USAGE ( .BOTH. , #46 ) ;
#46 = SURFACE_SIDE_STYLE ('',( #141 ) ) ;
#47 = FILL_AREA_STYLE ('',( #53 ) ) ;
#48 = FILL_AREA_STYLE_COLOUR ( '', #195 ) ;
#49 =( LENGTH_UNIT ( ) NAMED_UNIT ( * ) SI_UNIT ( .MILLI., .METRE. ) );
#50 = CARTESIAN_POINT ( 'NONE',  ( 0.0000000000000000000, 2.000000000000000000, 0.0000000000000000000 ) ) ;
#51 = CARTESIAN_POINT ( 'NONE',  ( 2.945275551949384600E-015, 2.000000000000000000, 24.05000000000000100 ) ) ;
#52 = CARTESIAN_POINT ( 'NONE',  ( 0.0000000000000000000, 2.000000000000000000, -19.39999999999999900 ) ) ;
#53 = FILL_AREA_STYLE_COLOUR ( '', #178 ) ;
#54 = CARTESIAN_POINT ( 'NONE',  ( 0.0000000000000000000, 0.0000000000000000000, -19.39999999999999900 ) ) ;
#55 = DIRECTION ( 'NONE',  ( 0.0000000000000000000, 0.0000000000000000000, 1.000000000000000000 ) ) ;
#56 = DIRECTION ( 'NONE',  ( 0.0000000000000000000, 1.000000000000000000, 0.0000000000000000000 ) ) ;
#57 = CARTESIAN_POINT ( 'NONE',  ( 0.0000000000000000000, 0.0000000000000000000, 0.0000000000000000000 ) ) ;
#58 = CARTESIAN_POINT ( 'NONE',  ( 2.945275551949384600E-015, 0.0000000000000000000, 24.05000000000000100 ) ) ;
#59 =( NAMED_UNIT ( * ) PLANE_ANGLE_UNIT ( ) SI_UNIT ( $, .RADIAN. ) );
#60 = CARTESIAN_POINT ( 'NONE',  ( 0.0000000000000000000, 2.000000000000000000, -24.05000000000000100 ) ) ;
#61 = DIRECTION ( 'NONE',  ( 0.0000000000000000000, 0.0000000000000000000, 1.000000000000000000 ) ) ;
#62 = CARTESIAN_POINT ( 'NONE',  ( 0.0000000000000000000, 0.0000000000000000000, 0.0000000000000000000 ) ) ;
#63 = DIRECTION ( 'NONE',  ( 0.0000000000000000000, 0.0000000000000000000, 1.000000000000000000 ) ) ;
#64 = DIRECTION ( 'NONE',  ( 0.0000000000000000000, 1.000000000000000000, 0.0000000000000000000 ) ) ;
#65 = CARTESIAN_POINT ( 'NONE',  ( 0.0000000000000000000, 0.0000000000000000000, 0.0000000000000000000 ) ) ;
#66 = CARTESIAN_POINT ( 'NONE',  ( 2.375814790345864800E-015, 0.0000000000000000000, 19.39999999999999900 ) ) ;
#67 = CARTESIAN_POINT ( 'NONE',  ( 0.0000000000000000000, 2.000000000000000000, 0.0000000000000000000 ) ) ;
#68 = CARTESIAN_POINT ( 'NONE',  ( 2.375814790345864800E-015, 2.000000000000000000, 19.39999999999999900 ) ) ;
#69 = DIRECTION ( 'NONE',  ( 0.0000000000000000000, 0.0000000000000000000, 1.000000000000000000 ) ) ;
#70 = CARTESIAN_POINT ( 'NONE',  ( 0.0000000000000000000, 0.0000000000000000000, -24.05000000000000100 ) ) ;
#71 = APPLICATION_PROTOCOL_DEFINITION ( 'draft international standard', 'automotive_design', 1998, #114 ) ;
#72 = CARTESIAN_POINT ( 'NONE',  ( 0.0000000000000000000, 0.0000000000000000000, 0.0000000000000000000 ) ) ;
#73 = CARTESIAN_POINT ( 'NONE',  ( 2.375814790345864800E-015, 2.000000000000000000, 19.39999999999999900 ) ) ;
#74 =( NAMED_UNIT ( * ) SI_UNIT ( $, .STERADIAN. ) SOLID_ANGLE_UNIT ( ) );
#75 = DIRECTION ( 'NONE',  ( -0.0000000000000000000, -1.000000000000000000, -0.0000000000000000000 ) ) ;
#76 = DIRECTION ( 'NONE',  ( -0.0000000000000000000, -1.000000000000000000, -0.0000000000000000000 ) ) ;
#77 = CARTESIAN_POINT ( 'NONE',  ( 0.0000000000000000000, 2.000000000000000000, 0.0000000000000000000 ) ) ;
#78 = DIRECTION ( 'NONE',  ( 0.0000000000000000000, 0.0000000000000000000, -1.000000000000000000 ) ) ;
#79 = CARTESIAN_POINT ( 'NONE',  ( 0.0000000000000000000, 2.000000000000000000, 0.0000000000000000000 ) ) ;
#80 = DIRECTION ( 'NONE',  ( 0.0000000000000000000, -0.0000000000000000000, 1.000000000000000000 ) ) ;
#81 = DIRECTION ( 'NONE',  ( 0.0000000000000000000, 0.0000000000000000000, -1.000000000000000000 ) ) ;
#82 = DIRECTION ( 'NONE',  ( -0.0000000000000000000, -1.000000000000000000, -0.0000000000000000000 ) ) ;
#83 = PLANE ( 'NONE',  #15 ) ;
#84 = DIRECTION ( 'NONE',  ( 0.0000000000000000000, 1.000000000000000000, 0.0000000000000000000 ) ) ;
#85 = DIRECTION ( 'NONE',  ( -0.0000000000000000000, -1.000000000000000000, -0.0000000000000000000 ) ) ;
#86 = CARTESIAN_POINT ( 'NONE',  ( 0.0000000000000000000, 0.0000000000000000000, 0.0000000000000000000 ) ) ;
#87 = DIRECTION ( 'NONE',  ( 0.0000000000000000000, 1.000000000000000000, 0.0000000000000000000 ) ) ;
#88 = CARTESIAN_POINT ( 'NONE',  ( 0.0000000000000000000, 2.000000000000000000, 0.0000000000000000000 ) ) ;
#89 = DIRECTION ( 'NONE',  ( 0.0000000000000000000, -0.0000000000000000000, 1.000000000000000000 ) ) ;
#90 = DIRECTION ( 'NONE',  ( 0.0000000000000000000, 0.0000000000000000000, -1.000000000000000000 ) ) ;
#91 = DIRECTION ( 'NONE',  ( -0.0000000000000000000, -1.000000000000000000, -0.0000000000000000000 ) ) ;
#92 = PLANE ( 'NONE',  #13 ) ;
#93 = DIRECTION ( 'NONE',  ( -0.0000000000000000000, -1.000000000000000000, -0.0000000000000000000 ) ) ;
#94 = CARTESIAN_POINT ( 'NONE',  ( 0.0000000000000000000, 2.000000000000000000, 0.0000000000000000000 ) ) ;
#95 = DIRECTION ( 'NONE',  ( 0.0000000000000000000, 0.0000000000000000000, 1.000000000000000000 ) ) ;
#96 = DIRECTION ( 'NONE',  ( 0.0000000000000000000, 1.000000000000000000, 0.0000000000000000000 ) ) ;
#97 = CARTESIAN_POINT ( 'NONE',  ( 0.0000000000000000000, 2.000000000000000000, 0.0000000000000000000 ) ) ;
#98 = CARTESIAN_POINT ( 'NONE',  ( 0.0000000000000000000, 2.000000000000000000, 0.0000000000000000000 ) ) ;
#99 = DIRECTION ( 'NONE',  ( -0.0000000000000000000, -1.000000000000000000, -0.0000000000000000000 ) ) ;
#100 = DIRECTION ( 'NONE',  ( 0.0000000000000000000, 0.0000000000000000000, -1.000000000000000000 ) ) ;
#101 = DIRECTION ( 'NONE',  ( 0.0000000000000000000, 0.0000000000000000000, 1.000000000000000000 ) ) ;
#102 = DIRECTION ( 'NONE',  ( 0.0000000000000000000, 1.000000000000000000, 0.0000000000000000000 ) ) ;
#103 = CARTESIAN_POINT ( 'NONE',  ( 0.0000000000000000000, 2.000000000000000000, 0.0000000000000000000 ) ) ;
#104 = DIRECTION ( 'NONE',  ( 0.0000000000000000000, 1.000000000000000000, 0.0000000000000000000 ) ) ;
#105 = DIRECTION ( 'NONE',  ( 0.0000000000000000000, 1.000000000000000000, 0.0000000000000000000 ) ) ;
#106 = SURFACE_STYLE_USAGE ( .BOTH. , #34 ) ;
#107 = DIRECTION ( 'NONE',  ( -0.0000000000000000000, -1.000000000000000000, -0.0000000000000000000 ) ) ;
#108 = CARTESIAN_POINT ( 'NONE',  ( 0.0000000000000000000, 2.000000000000000000, -24.05000000000000100 ) ) ;
#109 = DIRECTION ( 'NONE',  ( 0.0000000000000000000, 0.0000000000000000000, 1.000000000000000000 ) ) ;
#110 = DIRECTION ( 'NONE',  ( 0.0000000000000000000, 0.0000000000000000000, 1.000000000000000000 ) ) ;
#111 = DIRECTION ( 'NONE',  ( 0.0000000000000000000, 1.000000000000000000, 0.0000000000000000000 ) ) ;
#112 = CARTESIAN_POINT ( 'NONE',  ( 0.0000000000000000000, 0.0000000000000000000, 0.0000000000000000000 ) ) ;
#113 = PRODUCT_CONTEXT ( 'NONE', #36, 'mechanical' ) ;
#114 = APPLICATION_CONTEXT ( 'automotive_design' ) ;
#115 = DIRECTION ( 'NONE',  ( 1.000000000000000000, 0.0000000000000000000, 0.0000000000000000000 ) ) ;
#116 = CARTESIAN_POINT ( 'NONE',  ( 0.0000000000000000000, 2.000000000000000000, -19.39999999999999900 ) ) ;
#117 = CARTESIAN_POINT ( 'NONE',  ( 2.945275551949384600E-015, 2.000000000000000000, 24.05000000000000100 ) ) ;
#118 = DIRECTION ( 'NONE',  ( 0.0000000000000000000, 0.0000000000000000000, 1.000000000000000000 ) ) ;
#119 = PRODUCT ( 'Hositrad_CG40', 'Hositrad_CG40', '', ( #113 ) ) ;
#120 = EDGE_CURVE ( 'NONE', #150, #170, #192, .T. ) ;
#121 = EDGE_CURVE ( 'NONE', #191, #160, #145, .T. ) ;
#122 = EDGE_CURVE ( 'NONE', #177, #150, #189, .T. ) ;
#123 = EDGE_CURVE ( 'NONE', #144, #177, #180, .T. ) ;
#124 = EDGE_CURVE ( 'NONE', #144, #170, #173, .T. ) ;
#125 = EDGE_CURVE ( 'NONE', #148, #191, #204, .T. ) ;
#126 = ADVANCED_FACE ( 'NONE', ( #142 ), #179, .F. ) ;
#127 = ADVANCED_FACE ( 'NONE', ( #138, #154 ), #92, .T. ) ;
#128 = ADVANCED_FACE ( 'NONE', ( #188 ), #164, .T. ) ;
#129 = ADVANCED_FACE ( 'NONE', ( #165, #208 ), #83, .F. ) ;
#130 = ADVANCED_FACE ( 'NONE', ( #159 ), #205, .T. ) ;
#131 = ADVANCED_FACE ( 'NONE', ( #193 ), #153, .F. ) ;
#132 = EDGE_CURVE ( 'NONE', #147, #160, #176, .T. ) ;
#133 = EDGE_CURVE ( 'NONE', #170, #150, #187, .T. ) ;
#134 = ORIENTED_EDGE ( 'NONE', *, *, #2, .T. ) ;
#135 = ORIENTED_EDGE ( 'NONE', *, *, #1, .F. ) ;
#136 = ORIENTED_EDGE ( 'NONE', *, *, #4, .T. ) ;
#137 = EDGE_LOOP ( 'NONE', ( #149, #163 ) ) ;
#138 = FACE_OUTER_BOUND ( 'NONE', #174, .T. ) ;
#139 = ORIENTED_EDGE ( 'NONE', *, *, #122, .T. ) ;
#140 = ORIENTED_EDGE ( 'NONE', *, *, #123, .T. ) ;
#141 = SURFACE_STYLE_FILL_AREA ( #47 ) ;
#142 = FACE_OUTER_BOUND ( 'NONE', #209, .T. ) ;
#143 = CIRCLE ( 'NONE', #6, 24.05000000000000100 ) ;
#144 = VERTEX_POINT ( 'NONE', #60 ) ;
#145 = LINE ( 'NONE', #116, #207 ) ;
#146 = ORIENTED_EDGE ( 'NONE', *, *, #3, .F. ) ;
#147 = VERTEX_POINT ( 'NONE', #66 ) ;
#148 = VERTEX_POINT ( 'NONE', #73 ) ;
#149 = ORIENTED_EDGE ( 'NONE', *, *, #1, .T. ) ;
#150 = VERTEX_POINT ( 'NONE', #58 ) ;
#151 = EDGE_LOOP ( 'NONE', ( #202, #190, #200, #168 ) ) ;
#152 = PRESENTATION_STYLE_ASSIGNMENT (( #106 ) ) ;
#153 = CYLINDRICAL_SURFACE ( 'NONE', #18, 19.39999999999999900 ) ;
#154 = FACE_BOUND ( 'NONE', #196, .T. ) ;
#155 = CLOSED_SHELL ( 'NONE', ( #126, #128, #127, #129, #130, #131 ) ) ;
#156 = VECTOR ( 'NONE', #107, 1000.000000000000000 ) ;
#157 = CIRCLE ( 'NONE', #5, 19.39999999999999900 ) ;
#158 = ORIENTED_EDGE ( 'NONE', *, *, #121, .T. ) ;
#159 = FACE_OUTER_BOUND ( 'NONE', #151, .T. ) ;
#160 = VERTEX_POINT ( 'NONE', #54 ) ;
#161 = ORIENTED_EDGE ( 'NONE', *, *, #133, .F. ) ;
#162 = EDGE_LOOP ( 'NONE', ( #146, #203, #158, #183 ) ) ;
#163 = ORIENTED_EDGE ( 'NONE', *, *, #132, .T. ) ;
#164 = CYLINDRICAL_SURFACE ( 'NONE', #14, 24.05000000000000100 ) ;
#165 = FACE_OUTER_BOUND ( 'NONE', #198, .T. ) ;
#166 = VECTOR ( 'NONE', #76, 1000.000000000000000 ) ;
#167 = VECTOR ( 'NONE', #91, 1000.000000000000000 ) ;
#168 = ORIENTED_EDGE ( 'NONE', *, *, #133, .T. ) ;
#169 = ORIENTED_EDGE ( 'NONE', *, *, #125, .F. ) ;
#170 = VERTEX_POINT ( 'NONE', #70 ) ;
#171 = CIRCLE ( 'NONE', #7, 19.39999999999999900 ) ;
#172 = ORIENTED_EDGE ( 'NONE', *, *, #4, .F. ) ;
#173 = LINE ( 'NONE', #108, #166 ) ;
#174 = EDGE_LOOP ( 'NONE', ( #140, #134 ) ) ;
#175 = SURFACE_STYLE_FILL_AREA ( #35 ) ;
#176 = CIRCLE ( 'NONE', #11, 19.39999999999999900 ) ;
#177 = VERTEX_POINT ( 'NONE', #51 ) ;
#178 = COLOUR_RGB ( '',0.9882352941176471000, 0.6274509803921568500, 0.5176470588235293500 ) ;
#179 = CYLINDRICAL_SURFACE ( 'NONE', #12, 19.39999999999999900 ) ;
#180 = CIRCLE ( 'NONE', #9, 24.05000000000000100 ) ;
#181 = SHAPE_DEFINITION_REPRESENTATION ( #33, #210 ) ;
#182 = LINE ( 'NONE', #68, #167 ) ;
#183 = ORIENTED_EDGE ( 'NONE', *, *, #132, .F. ) ;
#184 = ORIENTED_EDGE ( 'NONE', *, *, #124, .F. ) ;
#185 = ORIENTED_EDGE ( 'NONE', *, *, #120, .F. ) ;
#186 = ORIENTED_EDGE ( 'NONE', *, *, #3, .T. ) ;
#187 = CIRCLE ( 'NONE', #16, 24.05000000000000100 ) ;
#188 = FACE_OUTER_BOUND ( 'NONE', #197, .T. ) ;
#189 = LINE ( 'NONE', #117, #156 ) ;
#190 = ORIENTED_EDGE ( 'NONE', *, *, #123, .F. ) ;
#191 = VERTEX_POINT ( 'NONE', #52 ) ;
#192 = CIRCLE ( 'NONE', #8, 24.05000000000000100 ) ;
#193 = FACE_OUTER_BOUND ( 'NONE', #162, .T. ) ;
#194 = ORIENTED_EDGE ( 'NONE', *, *, #120, .T. ) ;
#195 = COLOUR_RGB ( '',0.5372549019607842900, 0.3490196078431372400, 0.3372549019607843400 ) ;
#196 = EDGE_LOOP ( 'NONE', ( #172, #169 ) ) ;
#197 = EDGE_LOOP ( 'NONE', ( #199, #139, #194, #184 ) ) ;
#198 = EDGE_LOOP ( 'NONE', ( #161, #185 ) ) ;
#199 = ORIENTED_EDGE ( 'NONE', *, *, #2, .F. ) ;
#200 = ORIENTED_EDGE ( 'NONE', *, *, #124, .T. ) ;
#201 = ORIENTED_EDGE ( 'NONE', *, *, #121, .F. ) ;
#202 = ORIENTED_EDGE ( 'NONE', *, *, #122, .F. ) ;
#203 = ORIENTED_EDGE ( 'NONE', *, *, #125, .T. ) ;
#204 = CIRCLE ( 'NONE', #10, 19.39999999999999900 ) ;
#205 = CYLINDRICAL_SURFACE ( 'NONE', #17, 24.05000000000000100 ) ;
#206 = PRESENTATION_STYLE_ASSIGNMENT (( #45 ) ) ;
#207 = VECTOR ( 'NONE', #82, 1000.000000000000000 ) ;
#208 = FACE_BOUND ( 'NONE', #137, .T. ) ;
#209 = EDGE_LOOP ( 'NONE', ( #136, #186, #135, #201 ) ) ;
#210 = ADVANCED_BREP_SHAPE_REPRESENTATION ( 'Hositrad_CG40', ( #211, #28 ), #23 ) ;
#211 = MANIFOLD_SOLID_BREP ( 'Extrude1', #155 ) ;
#212 = UNCERTAINTY_MEASURE_WITH_UNIT (LENGTH_MEASURE( 1.000000000000000100E-005 ), #44, 'distance_accuracy_value', 'NONE');
#213 = UNCERTAINTY_MEASURE_WITH_UNIT (LENGTH_MEASURE( 1.000000000000000100E-005 ), #38, 'distance_accuracy_value', 'NONE');
#214 = UNCERTAINTY_MEASURE_WITH_UNIT (LENGTH_MEASURE( 1.000000000000000100E-005 ), #49, 'distance_accuracy_value', 'NONE');
ENDSEC;
END-ISO-10303-21;
