ISO-10303-21;
HEADER;
FILE_DESCRIPTION (( 'STEP AP214' ),
    '1' );
FILE_NAME ('Hositrad_CG50.STEP',
    '2012-07-05T14:45:19',
    ( '' ),
    ( '' ),
    'SwSTEP 2.0',
    'SolidWorks 2012',
    '' );
FILE_SCHEMA (( 'AUTOMOTIVE_DESIGN' ));
ENDSEC;

DATA;
#1 = EDGE_CURVE ( 'NONE', #202, #205, #152, .T. ) ;
#2 = EDGE_CURVE ( 'NONE', #147, #176, #168, .T. ) ;
#3 = EDGE_CURVE ( 'NONE', #147, #202, #186, .T. ) ;
#4 = EDGE_CURVE ( 'NONE', #160, #156, #174, .T. ) ;
#5 = EDGE_CURVE ( 'NONE', #205, #176, #189, .T. ) ;
#6 = AXIS2_PLACEMENT_3D ( 'NONE', #74, #62, #115 ) ;
#7 = AXIS2_PLACEMENT_3D ( 'NONE', #45, #111, #106 ) ;
#8 = AXIS2_PLACEMENT_3D ( 'NONE', #114, #113, #112 ) ;
#9 = AXIS2_PLACEMENT_3D ( 'NONE', #109, #108, #107 ) ;
#10 = AXIS2_PLACEMENT_3D ( 'NONE', #103, #101, #100 ) ;
#11 = AXIS2_PLACEMENT_3D ( 'NONE', #97, #94, #93 ) ;
#12 = AXIS2_PLACEMENT_3D ( 'NONE', #91, #90, #89 ) ;
#13 = AXIS2_PLACEMENT_3D ( 'NONE', #75, #71, #70 ) ;
#14 = AXIS2_PLACEMENT_3D ( 'NONE', #92, #104, #99 ) ;
#15 = AXIS2_PLACEMENT_3D ( 'NONE', #88, #87, #98 ) ;
#16 = AXIS2_PLACEMENT_3D ( 'NONE', #85, #86, #80 ) ;
#17 = STYLED_ITEM ( 'NONE', ( #181 ), #211 ) ;
#18 = AXIS2_PLACEMENT_3D ( 'NONE', #76, #69, #68 ) ;
#19 = PRESENTATION_LAYER_ASSIGNMENT (  '', '', ( #17 ) ) ;
#20 = AXIS2_PLACEMENT_3D ( 'NONE', #67, #77, #78 ) ;
#21 = AXIS2_PLACEMENT_3D ( 'NONE', #63, #60, #64 ) ;
#22 = MECHANICAL_DESIGN_GEOMETRIC_PRESENTATION_REPRESENTATION (  '', ( #17 ), #23 ) ;
#23 =( GEOMETRIC_REPRESENTATION_CONTEXT ( 3 ) GLOBAL_UNCERTAINTY_ASSIGNED_CONTEXT ( ( #212 ) ) GLOBAL_UNIT_ASSIGNED_CONTEXT ( ( #39, #38, #37 ) ) REPRESENTATION_CONTEXT ( 'NONE', 'WORKASPACE' ) );
#24 =( GEOMETRIC_REPRESENTATION_CONTEXT ( 3 ) GLOBAL_UNCERTAINTY_ASSIGNED_CONTEXT ( ( #213 ) ) GLOBAL_UNIT_ASSIGNED_CONTEXT ( ( #51, #44, #40 ) ) REPRESENTATION_CONTEXT ( 'NONE', 'WORKASPACE' ) );
#25 = STYLED_ITEM ( 'NONE', ( #145 ), #210 ) ;
#26 = PRESENTATION_LAYER_ASSIGNMENT (  '', '', ( #25 ) ) ;
#27 = MECHANICAL_DESIGN_GEOMETRIC_PRESENTATION_REPRESENTATION (  '', ( #25 ), #28 ) ;
#28 =( GEOMETRIC_REPRESENTATION_CONTEXT ( 3 ) GLOBAL_UNCERTAINTY_ASSIGNED_CONTEXT ( ( #214 ) ) GLOBAL_UNIT_ASSIGNED_CONTEXT ( ( #96, #72, #117 ) ) REPRESENTATION_CONTEXT ( 'NONE', 'WORKASPACE' ) );
#29 = AXIS2_PLACEMENT_3D ( 'NONE', #53, #81, #73 ) ;
#30 = PRODUCT_DEFINITION ( 'UNKNOWN', '', #31, #35 ) ;
#31 = PRODUCT_DEFINITION_FORMATION_WITH_SPECIFIED_SOURCE ( 'ANY', '', #122, .NOT_KNOWN. ) ;
#32 = PRODUCT_RELATED_PRODUCT_CATEGORY ( 'part', '', ( #122 ) ) ;
#33 = EDGE_CURVE ( 'NONE', #202, #147, #137, .T. ) ;
#34 = EDGE_CURVE ( 'NONE', #141, #160, #159, .T. ) ;
#35 = PRODUCT_DEFINITION_CONTEXT ( 'detailed design', #65, 'design' ) ;
#36 = PRODUCT_DEFINITION_SHAPE ( 'NONE', 'NONE',  #30 ) ;
#37 =( NAMED_UNIT ( * ) SI_UNIT ( $, .STERADIAN. ) SOLID_ANGLE_UNIT ( ) );
#38 =( NAMED_UNIT ( * ) PLANE_ANGLE_UNIT ( ) SI_UNIT ( $, .RADIAN. ) );
#39 =( LENGTH_UNIT ( ) NAMED_UNIT ( * ) SI_UNIT ( .MILLI., .METRE. ) );
#40 =( NAMED_UNIT ( * ) SI_UNIT ( $, .STERADIAN. ) SOLID_ANGLE_UNIT ( ) );
#41 = SURFACE_STYLE_USAGE ( .BOTH. , #42 ) ;
#42 = SURFACE_SIDE_STYLE ('',( #144 ) ) ;
#43 = FILL_AREA_STYLE ('',( #52 ) ) ;
#44 =( NAMED_UNIT ( * ) PLANE_ANGLE_UNIT ( ) SI_UNIT ( $, .RADIAN. ) );
#45 = CARTESIAN_POINT ( 'NONE',  ( 0.0000000000000000000, 0.0000000000000000000, 0.0000000000000000000 ) ) ;
#46 = CARTESIAN_POINT ( 'NONE',  ( 3.771912141373847600E-015, 0.0000000000000000000, 30.80000000000000100 ) ) ;
#47 = APPLICATION_CONTEXT ( 'automotive_design' ) ;
#48 = CARTESIAN_POINT ( 'NONE',  ( 3.771912141373847600E-015, 2.000000000000000000, 30.80000000000000100 ) ) ;
#49 = FILL_AREA_STYLE_COLOUR ( '', #140 ) ;
#50 = SURFACE_SIDE_STYLE ('',( #203 ) ) ;
#51 =( LENGTH_UNIT ( ) NAMED_UNIT ( * ) SI_UNIT ( .MILLI., .METRE. ) );
#52 = FILL_AREA_STYLE_COLOUR ( '', #182 ) ;
#53 = CARTESIAN_POINT ( 'NONE',  ( 0.0000000000000000000, 0.0000000000000000000, 0.0000000000000000000 ) ) ;
#54 = CARTESIAN_POINT ( 'NONE',  ( 3.116726103830013900E-015, 0.0000000000000000000, 25.44999999999999900 ) ) ;
#55 = CARTESIAN_POINT ( 'NONE',  ( 0.0000000000000000000, 0.0000000000000000000, -25.44999999999999900 ) ) ;
#56 = CARTESIAN_POINT ( 'NONE',  ( 0.0000000000000000000, 2.000000000000000000, -25.44999999999999900 ) ) ;
#57 = CARTESIAN_POINT ( 'NONE',  ( 0.0000000000000000000, 2.000000000000000000, -30.80000000000000100 ) ) ;
#58 = CARTESIAN_POINT ( 'NONE',  ( 0.0000000000000000000, 0.0000000000000000000, -30.80000000000000100 ) ) ;
#59 = CARTESIAN_POINT ( 'NONE',  ( 3.116726103830013900E-015, 2.000000000000000000, 25.44999999999999900 ) ) ;
#60 = DIRECTION ( 'NONE',  ( -0.0000000000000000000, -1.000000000000000000, -0.0000000000000000000 ) ) ;
#61 = CARTESIAN_POINT ( 'NONE',  ( 0.0000000000000000000, 2.000000000000000000, -30.80000000000000100 ) ) ;
#62 = DIRECTION ( 'NONE',  ( 0.0000000000000000000, 1.000000000000000000, 0.0000000000000000000 ) ) ;
#63 = CARTESIAN_POINT ( 'NONE',  ( 0.0000000000000000000, 2.000000000000000000, 0.0000000000000000000 ) ) ;
#64 = DIRECTION ( 'NONE',  ( 0.0000000000000000000, 0.0000000000000000000, -1.000000000000000000 ) ) ;
#65 = APPLICATION_CONTEXT ( 'automotive_design' ) ;
#66 = FILL_AREA_STYLE ('',( #49 ) ) ;
#67 = CARTESIAN_POINT ( 'NONE',  ( 0.0000000000000000000, 2.000000000000000000, 0.0000000000000000000 ) ) ;
#68 = DIRECTION ( 'NONE',  ( 0.0000000000000000000, -0.0000000000000000000, 1.000000000000000000 ) ) ;
#69 = DIRECTION ( 'NONE',  ( 0.0000000000000000000, 1.000000000000000000, 0.0000000000000000000 ) ) ;
#70 = DIRECTION ( 'NONE',  ( 0.0000000000000000000, 0.0000000000000000000, 1.000000000000000000 ) ) ;
#71 = DIRECTION ( 'NONE',  ( 0.0000000000000000000, 1.000000000000000000, 0.0000000000000000000 ) ) ;
#72 =( NAMED_UNIT ( * ) PLANE_ANGLE_UNIT ( ) SI_UNIT ( $, .RADIAN. ) );
#73 = DIRECTION ( 'NONE',  ( 1.000000000000000000, 0.0000000000000000000, 0.0000000000000000000 ) ) ;
#74 = CARTESIAN_POINT ( 'NONE',  ( 0.0000000000000000000, 2.000000000000000000, 0.0000000000000000000 ) ) ;
#75 = CARTESIAN_POINT ( 'NONE',  ( 0.0000000000000000000, 2.000000000000000000, 0.0000000000000000000 ) ) ;
#76 = CARTESIAN_POINT ( 'NONE',  ( 0.0000000000000000000, 0.0000000000000000000, 0.0000000000000000000 ) ) ;
#77 = DIRECTION ( 'NONE',  ( -0.0000000000000000000, -1.000000000000000000, -0.0000000000000000000 ) ) ;
#78 = DIRECTION ( 'NONE',  ( 0.0000000000000000000, 0.0000000000000000000, -1.000000000000000000 ) ) ;
#79 = PLANE ( 'NONE',  #18 ) ;
#80 = DIRECTION ( 'NONE',  ( 0.0000000000000000000, -0.0000000000000000000, 1.000000000000000000 ) ) ;
#81 = DIRECTION ( 'NONE',  ( 0.0000000000000000000, 0.0000000000000000000, 1.000000000000000000 ) ) ;
#82 = PLANE ( 'NONE',  #16 ) ;
#83 = CARTESIAN_POINT ( 'NONE',  ( 3.771912141373847600E-015, 2.000000000000000000, 30.80000000000000100 ) ) ;
#84 = DIRECTION ( 'NONE',  ( -0.0000000000000000000, -1.000000000000000000, -0.0000000000000000000 ) ) ;
#85 = CARTESIAN_POINT ( 'NONE',  ( 0.0000000000000000000, 2.000000000000000000, 0.0000000000000000000 ) ) ;
#86 = DIRECTION ( 'NONE',  ( 0.0000000000000000000, 1.000000000000000000, 0.0000000000000000000 ) ) ;
#87 = DIRECTION ( 'NONE',  ( -0.0000000000000000000, -1.000000000000000000, -0.0000000000000000000 ) ) ;
#88 = CARTESIAN_POINT ( 'NONE',  ( 0.0000000000000000000, 2.000000000000000000, 0.0000000000000000000 ) ) ;
#89 = DIRECTION ( 'NONE',  ( 0.0000000000000000000, 0.0000000000000000000, 1.000000000000000000 ) ) ;
#90 = DIRECTION ( 'NONE',  ( 0.0000000000000000000, 1.000000000000000000, 0.0000000000000000000 ) ) ;
#91 = CARTESIAN_POINT ( 'NONE',  ( 0.0000000000000000000, 2.000000000000000000, 0.0000000000000000000 ) ) ;
#92 = CARTESIAN_POINT ( 'NONE',  ( 0.0000000000000000000, 2.000000000000000000, 0.0000000000000000000 ) ) ;
#93 = DIRECTION ( 'NONE',  ( 0.0000000000000000000, 0.0000000000000000000, 1.000000000000000000 ) ) ;
#94 = DIRECTION ( 'NONE',  ( 0.0000000000000000000, 1.000000000000000000, 0.0000000000000000000 ) ) ;
#95 = APPLICATION_PROTOCOL_DEFINITION ( 'draft international standard', 'automotive_design', 1998, #65 ) ;
#96 =( LENGTH_UNIT ( ) NAMED_UNIT ( * ) SI_UNIT ( .MILLI., .METRE. ) );
#97 = CARTESIAN_POINT ( 'NONE',  ( 0.0000000000000000000, 0.0000000000000000000, 0.0000000000000000000 ) ) ;
#98 = DIRECTION ( 'NONE',  ( 0.0000000000000000000, 0.0000000000000000000, -1.000000000000000000 ) ) ;
#99 = DIRECTION ( 'NONE',  ( 0.0000000000000000000, 0.0000000000000000000, -1.000000000000000000 ) ) ;
#100 = DIRECTION ( 'NONE',  ( 0.0000000000000000000, 0.0000000000000000000, 1.000000000000000000 ) ) ;
#101 = DIRECTION ( 'NONE',  ( 0.0000000000000000000, 1.000000000000000000, 0.0000000000000000000 ) ) ;
#102 = PRODUCT_CONTEXT ( 'NONE', #47, 'mechanical' ) ;
#103 = CARTESIAN_POINT ( 'NONE',  ( 0.0000000000000000000, 0.0000000000000000000, 0.0000000000000000000 ) ) ;
#104 = DIRECTION ( 'NONE',  ( -0.0000000000000000000, -1.000000000000000000, -0.0000000000000000000 ) ) ;
#105 = CARTESIAN_POINT ( 'NONE',  ( 0.0000000000000000000, 2.000000000000000000, -25.44999999999999900 ) ) ;
#106 = DIRECTION ( 'NONE',  ( 0.0000000000000000000, 0.0000000000000000000, 1.000000000000000000 ) ) ;
#107 = DIRECTION ( 'NONE',  ( 0.0000000000000000000, 0.0000000000000000000, 1.000000000000000000 ) ) ;
#108 = DIRECTION ( 'NONE',  ( 0.0000000000000000000, 1.000000000000000000, 0.0000000000000000000 ) ) ;
#109 = CARTESIAN_POINT ( 'NONE',  ( 0.0000000000000000000, 2.000000000000000000, 0.0000000000000000000 ) ) ;
#110 = DIRECTION ( 'NONE',  ( -0.0000000000000000000, -1.000000000000000000, -0.0000000000000000000 ) ) ;
#111 = DIRECTION ( 'NONE',  ( 0.0000000000000000000, 1.000000000000000000, 0.0000000000000000000 ) ) ;
#112 = DIRECTION ( 'NONE',  ( 0.0000000000000000000, 0.0000000000000000000, 1.000000000000000000 ) ) ;
#113 = DIRECTION ( 'NONE',  ( 0.0000000000000000000, 1.000000000000000000, 0.0000000000000000000 ) ) ;
#114 = CARTESIAN_POINT ( 'NONE',  ( 0.0000000000000000000, 0.0000000000000000000, 0.0000000000000000000 ) ) ;
#115 = DIRECTION ( 'NONE',  ( 0.0000000000000000000, 0.0000000000000000000, 1.000000000000000000 ) ) ;
#116 = DIRECTION ( 'NONE',  ( -0.0000000000000000000, -1.000000000000000000, -0.0000000000000000000 ) ) ;
#117 =( NAMED_UNIT ( * ) SI_UNIT ( $, .STERADIAN. ) SOLID_ANGLE_UNIT ( ) );
#118 = CARTESIAN_POINT ( 'NONE',  ( 3.116726103830013900E-015, 2.000000000000000000, 25.44999999999999900 ) ) ;
#119 = DIRECTION ( 'NONE',  ( -0.0000000000000000000, -1.000000000000000000, -0.0000000000000000000 ) ) ;
#120 = APPLICATION_PROTOCOL_DEFINITION ( 'draft international standard', 'automotive_design', 1998, #47 ) ;
#121 = SURFACE_STYLE_USAGE ( .BOTH. , #50 ) ;
#122 = PRODUCT ( 'Hositrad_CG50', 'Hositrad_CG50', '', ( #102 ) ) ;
#123 = EDGE_CURVE ( 'NONE', #156, #160, #163, .T. ) ;
#124 = EDGE_CURVE ( 'NONE', #166, #156, #194, .T. ) ;
#125 = EDGE_CURVE ( 'NONE', #176, #205, #197, .T. ) ;
#126 = EDGE_CURVE ( 'NONE', #166, #141, #184, .T. ) ;
#127 = ADVANCED_FACE ( 'NONE', ( #173 ), #148, .F. ) ;
#128 = ADVANCED_FACE ( 'NONE', ( #162 ), #172, .T. ) ;
#129 = ADVANCED_FACE ( 'NONE', ( #170, #183 ), #82, .T. ) ;
#130 = EDGE_CURVE ( 'NONE', #141, #166, #178, .T. ) ;
#131 = ADVANCED_FACE ( 'NONE', ( #136, #161 ), #79, .F. ) ;
#132 = ADVANCED_FACE ( 'NONE', ( #191 ), #146, .T. ) ;
#133 = ADVANCED_FACE ( 'NONE', ( #135 ), #171, .F. ) ;
#134 = ORIENTED_EDGE ( 'NONE', *, *, #125, .F. ) ;
#135 = FACE_OUTER_BOUND ( 'NONE', #143, .T. ) ;
#136 = FACE_OUTER_BOUND ( 'NONE', #158, .T. ) ;
#137 = CIRCLE ( 'NONE', #9, 30.80000000000000100 ) ;
#138 = ORIENTED_EDGE ( 'NONE', *, *, #34, .F. ) ;
#139 = ORIENTED_EDGE ( 'NONE', *, *, #5, .T. ) ;
#140 = COLOUR_RGB ( '',0.5372549019607842900, 0.3490196078431372400, 0.3372549019607843400 ) ;
#141 = VERTEX_POINT ( 'NONE', #59 ) ;
#142 = ORIENTED_EDGE ( 'NONE', *, *, #130, .F. ) ;
#143 = EDGE_LOOP ( 'NONE', ( #138, #192, #164, #169 ) ) ;
#144 = SURFACE_STYLE_FILL_AREA ( #43 ) ;
#145 = PRESENTATION_STYLE_ASSIGNMENT (( #121 ) ) ;
#146 = CYLINDRICAL_SURFACE ( 'NONE', #20, 30.80000000000000100 ) ;
#147 = VERTEX_POINT ( 'NONE', #57 ) ;
#148 = CYLINDRICAL_SURFACE ( 'NONE', #14, 25.44999999999999900 ) ;
#149 = VECTOR ( 'NONE', #116, 1000.000000000000000 ) ;
#150 = SHAPE_DEFINITION_REPRESENTATION ( #36, #210 ) ;
#151 = CLOSED_SHELL ( 'NONE', ( #127, #132, #129, #131, #128, #133 ) ) ;
#152 = LINE ( 'NONE', #83, #198 ) ;
#153 = ORIENTED_EDGE ( 'NONE', *, *, #124, .F. ) ;
#154 = EDGE_LOOP ( 'NONE', ( #193, #206, #175, #153 ) ) ;
#155 = ORIENTED_EDGE ( 'NONE', *, *, #126, .F. ) ;
#156 = VERTEX_POINT ( 'NONE', #55 ) ;
#157 = ORIENTED_EDGE ( 'NONE', *, *, #1, .F. ) ;
#158 = EDGE_LOOP ( 'NONE', ( #134, #208 ) ) ;
#159 = LINE ( 'NONE', #118, #149 ) ;
#160 = VERTEX_POINT ( 'NONE', #54 ) ;
#161 = FACE_BOUND ( 'NONE', #199, .T. ) ;
#162 = FACE_OUTER_BOUND ( 'NONE', #180, .T. ) ;
#163 = CIRCLE ( 'NONE', #10, 25.44999999999999900 ) ;
#164 = ORIENTED_EDGE ( 'NONE', *, *, #124, .T. ) ;
#165 = ORIENTED_EDGE ( 'NONE', *, *, #2, .F. ) ;
#166 = VERTEX_POINT ( 'NONE', #56 ) ;
#167 = ORIENTED_EDGE ( 'NONE', *, *, #2, .T. ) ;
#168 = LINE ( 'NONE', #61, #190 ) ;
#169 = ORIENTED_EDGE ( 'NONE', *, *, #4, .F. ) ;
#170 = FACE_OUTER_BOUND ( 'NONE', #209, .T. ) ;
#171 = CYLINDRICAL_SURFACE ( 'NONE', #21, 25.44999999999999900 ) ;
#172 = CYLINDRICAL_SURFACE ( 'NONE', #15, 30.80000000000000100 ) ;
#173 = FACE_OUTER_BOUND ( 'NONE', #154, .T. ) ;
#174 = CIRCLE ( 'NONE', #7, 25.44999999999999900 ) ;
#175 = ORIENTED_EDGE ( 'NONE', *, *, #123, .F. ) ;
#176 = VERTEX_POINT ( 'NONE', #58 ) ;
#177 = ORIENTED_EDGE ( 'NONE', *, *, #123, .T. ) ;
#178 = CIRCLE ( 'NONE', #13, 25.44999999999999900 ) ;
#179 = ORIENTED_EDGE ( 'NONE', *, *, #1, .T. ) ;
#180 = EDGE_LOOP ( 'NONE', ( #157, #185, #167, #200 ) ) ;
#181 = PRESENTATION_STYLE_ASSIGNMENT (( #41 ) ) ;
#182 = COLOUR_RGB ( '',0.9882352941176471000, 0.6274509803921568500, 0.5176470588235293500 ) ;
#183 = FACE_BOUND ( 'NONE', #207, .T. ) ;
#184 = CIRCLE ( 'NONE', #12, 25.44999999999999900 ) ;
#185 = ORIENTED_EDGE ( 'NONE', *, *, #3, .F. ) ;
#186 = CIRCLE ( 'NONE', #6, 30.80000000000000100 ) ;
#187 = EDGE_LOOP ( 'NONE', ( #201, #179, #139, #165 ) ) ;
#188 = VECTOR ( 'NONE', #110, 1000.000000000000000 ) ;
#189 = CIRCLE ( 'NONE', #8, 30.80000000000000100 ) ;
#190 = VECTOR ( 'NONE', #119, 1000.000000000000000 ) ;
#191 = FACE_OUTER_BOUND ( 'NONE', #187, .T. ) ;
#192 = ORIENTED_EDGE ( 'NONE', *, *, #130, .T. ) ;
#193 = ORIENTED_EDGE ( 'NONE', *, *, #126, .T. ) ;
#194 = LINE ( 'NONE', #105, #188 ) ;
#195 = ORIENTED_EDGE ( 'NONE', *, *, #3, .T. ) ;
#196 = ORIENTED_EDGE ( 'NONE', *, *, #33, .T. ) ;
#197 = CIRCLE ( 'NONE', #11, 30.80000000000000100 ) ;
#198 = VECTOR ( 'NONE', #84, 1000.000000000000000 ) ;
#199 = EDGE_LOOP ( 'NONE', ( #177, #204 ) ) ;
#200 = ORIENTED_EDGE ( 'NONE', *, *, #125, .T. ) ;
#201 = ORIENTED_EDGE ( 'NONE', *, *, #33, .F. ) ;
#202 = VERTEX_POINT ( 'NONE', #48 ) ;
#203 = SURFACE_STYLE_FILL_AREA ( #66 ) ;
#204 = ORIENTED_EDGE ( 'NONE', *, *, #4, .T. ) ;
#205 = VERTEX_POINT ( 'NONE', #46 ) ;
#206 = ORIENTED_EDGE ( 'NONE', *, *, #34, .T. ) ;
#207 = EDGE_LOOP ( 'NONE', ( #155, #142 ) ) ;
#208 = ORIENTED_EDGE ( 'NONE', *, *, #5, .F. ) ;
#209 = EDGE_LOOP ( 'NONE', ( #195, #196 ) ) ;
#210 = ADVANCED_BREP_SHAPE_REPRESENTATION ( 'Hositrad_CG50', ( #211, #29 ), #24 ) ;
#211 = MANIFOLD_SOLID_BREP ( 'Extrude1', #151 ) ;
#212 = UNCERTAINTY_MEASURE_WITH_UNIT (LENGTH_MEASURE( 1.000000000000000100E-005 ), #39, 'distance_accuracy_value', 'NONE');
#213 = UNCERTAINTY_MEASURE_WITH_UNIT (LENGTH_MEASURE( 1.000000000000000100E-005 ), #51, 'distance_accuracy_value', 'NONE');
#214 = UNCERTAINTY_MEASURE_WITH_UNIT (LENGTH_MEASURE( 1.000000000000000100E-005 ), #96, 'distance_accuracy_value', 'NONE');
ENDSEC;
END-ISO-10303-21;
