ISO-10303-21;
HEADER;
FILE_DESCRIPTION (( 'STEP AP214' ),
    '1' );
FILE_NAME ('Hositrad_CG64.STEP',
    '2012-07-05T14:46:07',
    ( '' ),
    ( '' ),
    'SwSTEP 2.0',
    'SolidWorks 2012',
    '' );
FILE_SCHEMA (( 'AUTOMOTIVE_DESIGN' ));
ENDSEC;

DATA;
#1 = DIRECTION ( 'NONE',  ( 0.0000000000000000000, 0.0000000000000000000, 1.000000000000000000 ) ) ;
#2 = DIRECTION ( 'NONE',  ( 0.0000000000000000000, 1.000000000000000000, 0.0000000000000000000 ) ) ;
#3 =( NAMED_UNIT ( * ) PLANE_ANGLE_UNIT ( ) SI_UNIT ( $, .RADIAN. ) );
#4 =( NAMED_UNIT ( * ) SI_UNIT ( $, .STERADIAN. ) SOLID_ANGLE_UNIT ( ) );
#5 =( NAMED_UNIT ( * ) PLANE_ANGLE_UNIT ( ) SI_UNIT ( $, .RADIAN. ) );
#6 =( NAMED_UNIT ( * ) SI_UNIT ( $, .STERADIAN. ) SOLID_ANGLE_UNIT ( ) );
#7 = APPLICATION_PROTOCOL_DEFINITION ( 'draft international standard', 'automotive_design', 1998, #8 ) ;
#8 = APPLICATION_CONTEXT ( 'automotive_design' ) ;
#9 = FILL_AREA_STYLE ('',( #45 ) ) ;
#10 = SURFACE_SIDE_STYLE ('',( #170 ) ) ;
#11 = SURFACE_STYLE_USAGE ( .BOTH. , #10 ) ;
#12 =( LENGTH_UNIT ( ) NAMED_UNIT ( * ) SI_UNIT ( .MILLI., .METRE. ) );
#13 =( NAMED_UNIT ( * ) PLANE_ANGLE_UNIT ( ) SI_UNIT ( $, .RADIAN. ) );
#14 =( NAMED_UNIT ( * ) SI_UNIT ( $, .STERADIAN. ) SOLID_ANGLE_UNIT ( ) );
#15 = CARTESIAN_POINT ( 'NONE',  ( 0.0000000000000000000, 0.0000000000000000000, 0.0000000000000000000 ) ) ;
#16 = DIRECTION ( 'NONE',  ( 0.0000000000000000000, 0.0000000000000000000, 1.000000000000000000 ) ) ;
#17 = CARTESIAN_POINT ( 'NONE',  ( 0.0000000000000000000, 0.0000000000000000000, 0.0000000000000000000 ) ) ;
#18 = CARTESIAN_POINT ( 'NONE',  ( 0.0000000000000000000, 2.000000000000000000, 0.0000000000000000000 ) ) ;
#19 = DIRECTION ( 'NONE',  ( 0.0000000000000000000, 1.000000000000000000, 0.0000000000000000000 ) ) ;
#20 = CARTESIAN_POINT ( 'NONE',  ( 0.0000000000000000000, 2.000000000000000000, 0.0000000000000000000 ) ) ;
#21 = DIRECTION ( 'NONE',  ( -0.0000000000000000000, -1.000000000000000000, -0.0000000000000000000 ) ) ;
#22 = DIRECTION ( 'NONE',  ( 0.0000000000000000000, 0.0000000000000000000, -1.000000000000000000 ) ) ;
#23 = DIRECTION ( 'NONE',  ( -0.0000000000000000000, -1.000000000000000000, -0.0000000000000000000 ) ) ;
#24 = CARTESIAN_POINT ( 'NONE',  ( 0.0000000000000000000, 2.000000000000000000, -41.14999999999999900 ) ) ;
#25 = CARTESIAN_POINT ( 'NONE',  ( 0.0000000000000000000, 0.0000000000000000000, 0.0000000000000000000 ) ) ;
#26 = DIRECTION ( 'NONE',  ( 0.0000000000000000000, 1.000000000000000000, 0.0000000000000000000 ) ) ;
#27 = DIRECTION ( 'NONE',  ( 0.0000000000000000000, 0.0000000000000000000, 1.000000000000000000 ) ) ;
#28 = CARTESIAN_POINT ( 'NONE',  ( 3.888253587292846500E-015, 0.0000000000000000000, 31.75000000000000000 ) ) ;
#29 = CARTESIAN_POINT ( 'NONE',  ( 0.0000000000000000000, 0.0000000000000000000, 0.0000000000000000000 ) ) ;
#30 = DIRECTION ( 'NONE',  ( 0.0000000000000000000, 1.000000000000000000, 0.0000000000000000000 ) ) ;
#31 = DIRECTION ( 'NONE',  ( 0.0000000000000000000, 0.0000000000000000000, 1.000000000000000000 ) ) ;
#32 = DIRECTION ( 'NONE',  ( -0.0000000000000000000, -1.000000000000000000, -0.0000000000000000000 ) ) ;
#33 = CARTESIAN_POINT ( 'NONE',  ( 5.039421578491358600E-015, 2.000000000000000000, 41.14999999999999900 ) ) ;
#34 = CARTESIAN_POINT ( 'NONE',  ( 0.0000000000000000000, 2.000000000000000000, -41.14999999999999900 ) ) ;
#35 = CARTESIAN_POINT ( 'NONE',  ( 5.039421578491358600E-015, 0.0000000000000000000, 41.14999999999999900 ) ) ;
#36 = CARTESIAN_POINT ( 'NONE',  ( 0.0000000000000000000, 0.0000000000000000000, 0.0000000000000000000 ) ) ;
#37 = DIRECTION ( 'NONE',  ( 0.0000000000000000000, 1.000000000000000000, 0.0000000000000000000 ) ) ;
#38 = DIRECTION ( 'NONE',  ( 0.0000000000000000000, 0.0000000000000000000, 1.000000000000000000 ) ) ;
#39 = CARTESIAN_POINT ( 'NONE',  ( 0.0000000000000000000, 0.0000000000000000000, -31.75000000000000000 ) ) ;
#40 = FILL_AREA_STYLE_COLOUR ( '', #181 ) ;
#41 = CARTESIAN_POINT ( 'NONE',  ( 0.0000000000000000000, 0.0000000000000000000, -41.14999999999999900 ) ) ;
#42 = CARTESIAN_POINT ( 'NONE',  ( 0.0000000000000000000, 2.000000000000000000, -31.75000000000000000 ) ) ;
#43 = CARTESIAN_POINT ( 'NONE',  ( 3.888253587292846500E-015, 2.000000000000000000, 31.75000000000000000 ) ) ;
#44 = FILL_AREA_STYLE ('',( #40 ) ) ;
#45 = FILL_AREA_STYLE_COLOUR ( '', #167 ) ;
#46 =( LENGTH_UNIT ( ) NAMED_UNIT ( * ) SI_UNIT ( .MILLI., .METRE. ) );
#47 = SURFACE_SIDE_STYLE ('',( #133 ) ) ;
#48 = SURFACE_STYLE_USAGE ( .BOTH. , #47 ) ;
#49 =( LENGTH_UNIT ( ) NAMED_UNIT ( * ) SI_UNIT ( .MILLI., .METRE. ) );
#50 = DIRECTION ( 'NONE',  ( 1.000000000000000000, 0.0000000000000000000, 0.0000000000000000000 ) ) ;
#51 = PRODUCT_CONTEXT ( 'NONE', #8, 'mechanical' ) ;
#52 = APPLICATION_CONTEXT ( 'automotive_design' ) ;
#53 = APPLICATION_PROTOCOL_DEFINITION ( 'draft international standard', 'automotive_design', 1998, #52 ) ;
#54 = EDGE_CURVE ( 'NONE', #171, #150, #137, .T. ) ;
#55 = EDGE_CURVE ( 'NONE', #180, #204, #156, .T. ) ;
#56 = EDGE_CURVE ( 'NONE', #204, #180, #173, .T. ) ;
#57 = EDGE_CURVE ( 'NONE', #144, #138, #196, .T. ) ;
#58 = EDGE_CURVE ( 'NONE', #204, #171, #161, .T. ) ;
#59 = AXIS2_PLACEMENT_3D ( 'NONE', #17, #2, #1 ) ;
#60 = AXIS2_PLACEMENT_3D ( 'NONE', #18, #19, #120 ) ;
#61 = AXIS2_PLACEMENT_3D ( 'NONE', #121, #122, #123 ) ;
#62 = AXIS2_PLACEMENT_3D ( 'NONE', #126, #127, #128 ) ;
#63 = AXIS2_PLACEMENT_3D ( 'NONE', #208, #101, #102 ) ;
#64 = AXIS2_PLACEMENT_3D ( 'NONE', #25, #26, #27 ) ;
#65 = AXIS2_PLACEMENT_3D ( 'NONE', #103, #104, #105 ) ;
#66 = AXIS2_PLACEMENT_3D ( 'NONE', #106, #110, #111 ) ;
#67 = AXIS2_PLACEMENT_3D ( 'NONE', #112, #107, #109 ) ;
#68 = AXIS2_PLACEMENT_3D ( 'NONE', #114, #113, #124 ) ;
#69 = AXIS2_PLACEMENT_3D ( 'NONE', #29, #30, #31 ) ;
#70 = AXIS2_PLACEMENT_3D ( 'NONE', #132, #115, #117 ) ;
#71 = AXIS2_PLACEMENT_3D ( 'NONE', #20, #21, #22 ) ;
#72 = AXIS2_PLACEMENT_3D ( 'NONE', #36, #37, #38 ) ;
#73 = STYLED_ITEM ( 'NONE', ( #157 ), #212 ) ;
#74 = PRESENTATION_LAYER_ASSIGNMENT (  '', '', ( #73 ) ) ;
#75 = MECHANICAL_DESIGN_GEOMETRIC_PRESENTATION_REPRESENTATION (  '', ( #73 ), #76 ) ;
#76 =( GEOMETRIC_REPRESENTATION_CONTEXT ( 3 ) GLOBAL_UNCERTAINTY_ASSIGNED_CONTEXT ( ( #213 ) ) GLOBAL_UNIT_ASSIGNED_CONTEXT ( ( #49, #3, #4 ) ) REPRESENTATION_CONTEXT ( 'NONE', 'WORKASPACE' ) );
#77 =( GEOMETRIC_REPRESENTATION_CONTEXT ( 3 ) GLOBAL_UNCERTAINTY_ASSIGNED_CONTEXT ( ( #211 ) ) GLOBAL_UNIT_ASSIGNED_CONTEXT ( ( #46, #5, #6 ) ) REPRESENTATION_CONTEXT ( 'NONE', 'WORKASPACE' ) );
#78 = STYLED_ITEM ( 'NONE', ( #202 ), #210 ) ;
#79 = PRESENTATION_LAYER_ASSIGNMENT (  '', '', ( #78 ) ) ;
#80 = MECHANICAL_DESIGN_GEOMETRIC_PRESENTATION_REPRESENTATION (  '', ( #78 ), #81 ) ;
#81 =( GEOMETRIC_REPRESENTATION_CONTEXT ( 3 ) GLOBAL_UNCERTAINTY_ASSIGNED_CONTEXT ( ( #214 ) ) GLOBAL_UNIT_ASSIGNED_CONTEXT ( ( #12, #13, #14 ) ) REPRESENTATION_CONTEXT ( 'NONE', 'WORKASPACE' ) );
#82 = AXIS2_PLACEMENT_3D ( 'NONE', #15, #16, #50 ) ;
#83 = PRODUCT_DEFINITION ( 'UNKNOWN', '', #84, #94 ) ;
#84 = PRODUCT_DEFINITION_FORMATION_WITH_SPECIFIED_SOURCE ( 'ANY', '', #96, .NOT_KNOWN. ) ;
#85 = PRODUCT_RELATED_PRODUCT_CATEGORY ( 'part', '', ( #96 ) ) ;
#86 = EDGE_CURVE ( 'NONE', #180, #150, #182, .T. ) ;
#87 = EDGE_CURVE ( 'NONE', #138, #144, #151, .T. ) ;
#88 = ADVANCED_FACE ( 'NONE', ( #183 ), #178, .F. ) ;
#89 = ADVANCED_FACE ( 'NONE', ( #163, #177 ), #108, .F. ) ;
#90 = ADVANCED_FACE ( 'NONE', ( #135 ), #158, .T. ) ;
#91 = ADVANCED_FACE ( 'NONE', ( #192, #186 ), #116, .T. ) ;
#92 = ADVANCED_FACE ( 'NONE', ( #147 ), #159, .T. ) ;
#93 = ADVANCED_FACE ( 'NONE', ( #160 ), #175, .F. ) ;
#94 = PRODUCT_DEFINITION_CONTEXT ( 'detailed design', #52, 'design' ) ;
#95 = PRODUCT_DEFINITION_SHAPE ( 'NONE', 'NONE',  #83 ) ;
#96 = PRODUCT ( 'Hositrad_CG64', 'Hositrad_CG64', '', ( #51 ) ) ;
#97 = EDGE_CURVE ( 'NONE', #193, #164, #176, .T. ) ;
#98 = EDGE_CURVE ( 'NONE', #150, #171, #187, .T. ) ;
#99 = EDGE_CURVE ( 'NONE', #144, #193, #169, .T. ) ;
#100 = EDGE_CURVE ( 'NONE', #138, #164, #146, .T. ) ;
#101 = DIRECTION ( 'NONE',  ( 0.0000000000000000000, 1.000000000000000000, 0.0000000000000000000 ) ) ;
#102 = DIRECTION ( 'NONE',  ( 0.0000000000000000000, 0.0000000000000000000, 1.000000000000000000 ) ) ;
#103 = CARTESIAN_POINT ( 'NONE',  ( 0.0000000000000000000, 2.000000000000000000, 0.0000000000000000000 ) ) ;
#104 = DIRECTION ( 'NONE',  ( -0.0000000000000000000, -1.000000000000000000, -0.0000000000000000000 ) ) ;
#105 = DIRECTION ( 'NONE',  ( 0.0000000000000000000, 0.0000000000000000000, -1.000000000000000000 ) ) ;
#106 = CARTESIAN_POINT ( 'NONE',  ( 0.0000000000000000000, 0.0000000000000000000, 0.0000000000000000000 ) ) ;
#107 = DIRECTION ( 'NONE',  ( -0.0000000000000000000, -1.000000000000000000, -0.0000000000000000000 ) ) ;
#108 = PLANE ( 'NONE',  #66 ) ;
#109 = DIRECTION ( 'NONE',  ( 0.0000000000000000000, 0.0000000000000000000, -1.000000000000000000 ) ) ;
#110 = DIRECTION ( 'NONE',  ( 0.0000000000000000000, 1.000000000000000000, 0.0000000000000000000 ) ) ;
#111 = DIRECTION ( 'NONE',  ( 0.0000000000000000000, -0.0000000000000000000, 1.000000000000000000 ) ) ;
#112 = CARTESIAN_POINT ( 'NONE',  ( 0.0000000000000000000, 2.000000000000000000, 0.0000000000000000000 ) ) ;
#113 = DIRECTION ( 'NONE',  ( 0.0000000000000000000, 1.000000000000000000, 0.0000000000000000000 ) ) ;
#114 = CARTESIAN_POINT ( 'NONE',  ( 0.0000000000000000000, 2.000000000000000000, 0.0000000000000000000 ) ) ;
#115 = DIRECTION ( 'NONE',  ( -0.0000000000000000000, -1.000000000000000000, -0.0000000000000000000 ) ) ;
#116 = PLANE ( 'NONE',  #68 ) ;
#117 = DIRECTION ( 'NONE',  ( 0.0000000000000000000, 0.0000000000000000000, -1.000000000000000000 ) ) ;
#118 = SHAPE_DEFINITION_REPRESENTATION ( #95, #210 ) ;
#119 = EDGE_CURVE ( 'NONE', #164, #193, #134, .T. ) ;
#120 = DIRECTION ( 'NONE',  ( 0.0000000000000000000, 0.0000000000000000000, 1.000000000000000000 ) ) ;
#121 = CARTESIAN_POINT ( 'NONE',  ( 0.0000000000000000000, 2.000000000000000000, 0.0000000000000000000 ) ) ;
#122 = DIRECTION ( 'NONE',  ( 0.0000000000000000000, 1.000000000000000000, 0.0000000000000000000 ) ) ;
#123 = DIRECTION ( 'NONE',  ( 0.0000000000000000000, 0.0000000000000000000, 1.000000000000000000 ) ) ;
#124 = DIRECTION ( 'NONE',  ( 0.0000000000000000000, -0.0000000000000000000, 1.000000000000000000 ) ) ;
#125 = CARTESIAN_POINT ( 'NONE',  ( 3.888253587292846500E-015, 2.000000000000000000, 31.75000000000000000 ) ) ;
#126 = CARTESIAN_POINT ( 'NONE',  ( 0.0000000000000000000, 2.000000000000000000, 0.0000000000000000000 ) ) ;
#127 = DIRECTION ( 'NONE',  ( 0.0000000000000000000, 1.000000000000000000, 0.0000000000000000000 ) ) ;
#128 = DIRECTION ( 'NONE',  ( 0.0000000000000000000, 0.0000000000000000000, 1.000000000000000000 ) ) ;
#129 = DIRECTION ( 'NONE',  ( -0.0000000000000000000, -1.000000000000000000, -0.0000000000000000000 ) ) ;
#130 = CARTESIAN_POINT ( 'NONE',  ( 0.0000000000000000000, 2.000000000000000000, -31.75000000000000000 ) ) ;
#131 = DIRECTION ( 'NONE',  ( -0.0000000000000000000, -1.000000000000000000, -0.0000000000000000000 ) ) ;
#132 = CARTESIAN_POINT ( 'NONE',  ( 0.0000000000000000000, 2.000000000000000000, 0.0000000000000000000 ) ) ;
#133 = SURFACE_STYLE_FILL_AREA ( #44 ) ;
#134 = CIRCLE ( 'NONE', #72, 41.14999999999999900 ) ;
#135 = FACE_OUTER_BOUND ( 'NONE', #195, .T. ) ;
#136 = ORIENTED_EDGE ( 'NONE', *, *, #99, .F. ) ;
#137 = CIRCLE ( 'NONE', #59, 31.75000000000000000 ) ;
#138 = VERTEX_POINT ( 'NONE', #33 ) ;
#139 = ORIENTED_EDGE ( 'NONE', *, *, #86, .F. ) ;
#140 = EDGE_LOOP ( 'NONE', ( #207, #141 ) ) ;
#141 = ORIENTED_EDGE ( 'NONE', *, *, #54, .T. ) ;
#142 = ORIENTED_EDGE ( 'NONE', *, *, #119, .T. ) ;
#143 = CLOSED_SHELL ( 'NONE', ( #88, #92, #91, #89, #90, #93 ) ) ;
#144 = VERTEX_POINT ( 'NONE', #34 ) ;
#145 = VECTOR ( 'NONE', #23, 1000.000000000000000 ) ;
#146 = LINE ( 'NONE', #209, #153 ) ;
#147 = FACE_OUTER_BOUND ( 'NONE', #198, .T. ) ;
#148 = VECTOR ( 'NONE', #129, 1000.000000000000000 ) ;
#149 = ORIENTED_EDGE ( 'NONE', *, *, #98, .F. ) ;
#150 = VERTEX_POINT ( 'NONE', #39 ) ;
#151 = CIRCLE ( 'NONE', #63, 41.14999999999999900 ) ;
#152 = ORIENTED_EDGE ( 'NONE', *, *, #100, .F. ) ;
#153 = VECTOR ( 'NONE', #32, 1000.000000000000000 ) ;
#154 = ORIENTED_EDGE ( 'NONE', *, *, #58, .F. ) ;
#155 = ORIENTED_EDGE ( 'NONE', *, *, #56, .F. ) ;
#156 = CIRCLE ( 'NONE', #60, 31.75000000000000000 ) ;
#157 = PRESENTATION_STYLE_ASSIGNMENT (( #48 ) ) ;
#158 = CYLINDRICAL_SURFACE ( 'NONE', #67, 41.14999999999999900 ) ;
#159 = CYLINDRICAL_SURFACE ( 'NONE', #70, 41.14999999999999900 ) ;
#160 = FACE_OUTER_BOUND ( 'NONE', #197, .T. ) ;
#161 = LINE ( 'NONE', #125, #148 ) ;
#162 = VECTOR ( 'NONE', #131, 1000.000000000000000 ) ;
#163 = FACE_OUTER_BOUND ( 'NONE', #184, .T. ) ;
#164 = VERTEX_POINT ( 'NONE', #35 ) ;
#165 = EDGE_LOOP ( 'NONE', ( #201, #155 ) ) ;
#166 = ORIENTED_EDGE ( 'NONE', *, *, #57, .F. ) ;
#167 = COLOUR_RGB ( '',0.5372549019607842900, 0.3490196078431372400, 0.3372549019607843400 ) ;
#168 = ORIENTED_EDGE ( 'NONE', *, *, #57, .T. ) ;
#169 = LINE ( 'NONE', #24, #145 ) ;
#170 = SURFACE_STYLE_FILL_AREA ( #9 ) ;
#171 = VERTEX_POINT ( 'NONE', #28 ) ;
#172 = ORIENTED_EDGE ( 'NONE', *, *, #97, .F. ) ;
#173 = CIRCLE ( 'NONE', #61, 31.75000000000000000 ) ;
#174 = ORIENTED_EDGE ( 'NONE', *, *, #119, .F. ) ;
#175 = CYLINDRICAL_SURFACE ( 'NONE', #71, 31.75000000000000000 ) ;
#176 = CIRCLE ( 'NONE', #64, 41.14999999999999900 ) ;
#177 = FACE_BOUND ( 'NONE', #140, .T. ) ;
#178 = CYLINDRICAL_SURFACE ( 'NONE', #65, 31.75000000000000000 ) ;
#179 = ORIENTED_EDGE ( 'NONE', *, *, #54, .F. ) ;
#180 = VERTEX_POINT ( 'NONE', #42 ) ;
#181 = COLOUR_RGB ( '',0.9882352941176471000, 0.6274509803921568500, 0.5176470588235293500 ) ;
#182 = LINE ( 'NONE', #130, #162 ) ;
#183 = FACE_OUTER_BOUND ( 'NONE', #205, .T. ) ;
#184 = EDGE_LOOP ( 'NONE', ( #172, #174 ) ) ;
#185 = ORIENTED_EDGE ( 'NONE', *, *, #56, .T. ) ;
#186 = FACE_BOUND ( 'NONE', #165, .T. ) ;
#187 = CIRCLE ( 'NONE', #69, 31.75000000000000000 ) ;
#188 = ORIENTED_EDGE ( 'NONE', *, *, #55, .T. ) ;
#189 = ORIENTED_EDGE ( 'NONE', *, *, #58, .T. ) ;
#190 = ORIENTED_EDGE ( 'NONE', *, *, #87, .F. ) ;
#191 = ORIENTED_EDGE ( 'NONE', *, *, #86, .T. ) ;
#192 = FACE_OUTER_BOUND ( 'NONE', #199, .T. ) ;
#193 = VERTEX_POINT ( 'NONE', #41 ) ;
#194 = ORIENTED_EDGE ( 'NONE', *, *, #100, .T. ) ;
#195 = EDGE_LOOP ( 'NONE', ( #152, #166, #200, #206 ) ) ;
#196 = CIRCLE ( 'NONE', #62, 41.14999999999999900 ) ;
#197 = EDGE_LOOP ( 'NONE', ( #154, #185, #191, #179 ) ) ;
#198 = EDGE_LOOP ( 'NONE', ( #190, #194, #142, #136 ) ) ;
#199 = EDGE_LOOP ( 'NONE', ( #168, #203 ) ) ;
#200 = ORIENTED_EDGE ( 'NONE', *, *, #99, .T. ) ;
#201 = ORIENTED_EDGE ( 'NONE', *, *, #55, .F. ) ;
#202 = PRESENTATION_STYLE_ASSIGNMENT (( #11 ) ) ;
#203 = ORIENTED_EDGE ( 'NONE', *, *, #87, .T. ) ;
#204 = VERTEX_POINT ( 'NONE', #43 ) ;
#205 = EDGE_LOOP ( 'NONE', ( #188, #189, #149, #139 ) ) ;
#206 = ORIENTED_EDGE ( 'NONE', *, *, #97, .T. ) ;
#207 = ORIENTED_EDGE ( 'NONE', *, *, #98, .T. ) ;
#208 = CARTESIAN_POINT ( 'NONE',  ( 0.0000000000000000000, 2.000000000000000000, 0.0000000000000000000 ) ) ;
#209 = CARTESIAN_POINT ( 'NONE',  ( 5.039421578491358600E-015, 2.000000000000000000, 41.14999999999999900 ) ) ;
#210 = ADVANCED_BREP_SHAPE_REPRESENTATION ( 'Hositrad_CG64', ( #212, #82 ), #77 ) ;
#211 = UNCERTAINTY_MEASURE_WITH_UNIT (LENGTH_MEASURE( 1.000000000000000100E-005 ), #46, 'distance_accuracy_value', 'NONE');
#212 = MANIFOLD_SOLID_BREP ( 'Extrude1', #143 ) ;
#213 = UNCERTAINTY_MEASURE_WITH_UNIT (LENGTH_MEASURE( 1.000000000000000100E-005 ), #49, 'distance_accuracy_value', 'NONE');
#214 = UNCERTAINTY_MEASURE_WITH_UNIT (LENGTH_MEASURE( 1.000000000000000100E-005 ), #12, 'distance_accuracy_value', 'NONE');
ENDSEC;
END-ISO-10303-21;
