ISO-10303-21;
HEADER;
FILE_DESCRIPTION (( 'STEP AP214' ),
    '1' );
FILE_NAME ('Hositrad_CF16-12.7-R.STEP',
    '2017-05-01T13:38:49',
    ( 'Gebruiker' ),
    ( '' ),
    'SwSTEP 2.0',
    'SolidWorks 2017',
    '' );
FILE_SCHEMA (( 'AUTOMOTIVE_DESIGN' ));
ENDSEC;

DATA;
#1 = DIRECTION ( 'NONE',  ( 0.0000000000000000000, 0.0000000000000000000, 1.000000000000000000 ) ) ;
#2 = DIRECTION ( 'NONE',  ( 0.0000000000000000000, 0.0000000000000000000, 1.000000000000000000 ) ) ;
#3 = CARTESIAN_POINT ( 'NONE',  ( 0.0000000000000000000, 1.799999999999999600, 6.349999999999999600 ) ) ;
#4 =( NAMED_UNIT ( * ) SI_UNIT ( $, .STERADIAN. ) SOLID_ANGLE_UNIT ( ) );
#5 = EDGE_CURVE ( 'NONE', #352, #246, #276, .T. ) ;
#6 = EDGE_CURVE ( 'NONE', #68, #190, #271, .T. ) ;
#7 = DIRECTION ( 'NONE',  ( 0.0000000000000000000, -0.3420201433256667700, -0.9396926207859092100 ) ) ;
#8 = APPLICATION_CONTEXT ( 'automotive_design' ) ;
#9 = PRODUCT_RELATED_PRODUCT_CATEGORY ( 'part', '', ( #164 ) ) ;
#10 = DIRECTION ( 'NONE',  ( 0.0000000000000000000, 0.0000000000000000000, 1.000000000000000000 ) ) ;
#11 = PRODUCT_DEFINITION ( 'UNKNOWN', '', #191, #56 ) ;
#12 = CARTESIAN_POINT ( 'NONE',  ( 6.551860375438339700E-016, 2.899999999999998600, -5.349999999999999600 ) ) ;
#13 = UNCERTAINTY_MEASURE_WITH_UNIT (LENGTH_MEASURE( 1.000000000000000100E-005 ), #253, 'distance_accuracy_value', 'NONE');
#14 = ORIENTED_EDGE ( 'NONE', *, *, #205, .F. ) ;
#15 = DIRECTION ( 'NONE',  ( 0.0000000000000000000, 0.0000000000000000000, -1.000000000000000000 ) ) ;
#16 = AXIS2_PLACEMENT_3D ( 'NONE', #373, #372, #78 ) ;
#17 = EDGE_LOOP ( 'NONE', ( #102, #284, #179, #363 ) ) ;
#18 = DIRECTION ( 'NONE',  ( 0.0000000000000000000, 0.0000000000000000000, 1.000000000000000000 ) ) ;
#19 = CARTESIAN_POINT ( 'NONE',  ( 0.0000000000000000000, 2.899999999999998600, 0.0000000000000000000 ) ) ;
#20 = ORIENTED_EDGE ( 'NONE', *, *, #234, .T. ) ;
#21 = CARTESIAN_POINT ( 'NONE',  ( 0.0000000000000000000, 2.899999999999998600, 0.0000000000000000000 ) ) ;
#22 = CARTESIAN_POINT ( 'NONE',  ( 0.0000000000000000000, 1.799999999999999600, 0.0000000000000000000 ) ) ;
#23 = EDGE_LOOP ( 'NONE', ( #279, #63 ) ) ;
#24 = FILL_AREA_STYLE ('',( #213 ) ) ;
#25 = ADVANCED_FACE ( 'NONE', ( #287 ), #393, .T. ) ;
#26 = DIRECTION ( 'NONE',  ( 0.0000000000000000000, 1.000000000000000000, 0.0000000000000000000 ) ) ;
#27 = CARTESIAN_POINT ( 'NONE',  ( 0.0000000000000000000, 6.399999999999998600, 0.0000000000000000000 ) ) ;
#28 = SURFACE_SIDE_STYLE ('',( #136 ) ) ;
#29 = DIRECTION ( 'NONE',  ( -0.0000000000000000000, -1.000000000000000000, -0.0000000000000000000 ) ) ;
#30 = DIRECTION ( 'NONE',  ( -0.0000000000000000000, -1.000000000000000000, -0.0000000000000000000 ) ) ;
#31 = CARTESIAN_POINT ( 'NONE',  ( 0.0000000000000000000, 6.999999999999997300, 0.0000000000000000000 ) ) ;
#32 = EDGE_LOOP ( 'NONE', ( #211, #94, #87, #74 ) ) ;
#33 = VERTEX_POINT ( 'NONE', #73 ) ;
#34 = DIRECTION ( 'NONE',  ( 0.0000000000000000000, -1.000000000000000000, -0.0000000000000000000 ) ) ;
#35 = DIRECTION ( 'NONE',  ( 0.0000000000000000000, 0.0000000000000000000, -1.000000000000000000 ) ) ;
#36 = ADVANCED_FACE ( 'NONE', ( #80 ), #324, .F. ) ;
#37 = DIRECTION ( 'NONE',  ( 0.0000000000000000000, 0.0000000000000000000, 1.000000000000000000 ) ) ;
#38 = ADVANCED_FACE ( 'NONE', ( #301 ), #358, .F. ) ;
#39 = DIRECTION ( 'NONE',  ( 0.0000000000000000000, 0.0000000000000000000, -1.000000000000000000 ) ) ;
#40 = ADVANCED_FACE ( 'NONE', ( #320 ), #388, .T. ) ;
#41 = ADVANCED_FACE ( 'NONE', ( #337 ), #382, .F. ) ;
#42 = UNCERTAINTY_MEASURE_WITH_UNIT (LENGTH_MEASURE( 1.000000000000000100E-005 ), #120, 'distance_accuracy_value', 'NONE');
#43 = APPLICATION_CONTEXT ( 'automotive_design' ) ;
#44 = ADVANCED_FACE ( 'NONE', ( #381 ), #386, .F. ) ;
#45 = DIRECTION ( 'NONE',  ( 0.0000000000000000000, 1.000000000000000000, 0.0000000000000000000 ) ) ;
#46 = ORIENTED_EDGE ( 'NONE', *, *, #147, .T. ) ;
#47 = VERTEX_POINT ( 'NONE', #124 ) ;
#48 = ADVANCED_FACE ( 'NONE', ( #294, #387 ), #167, .F. ) ;
#49 = AXIS2_PLACEMENT_3D ( 'NONE', #177, #77, #366 ) ;
#50 = ADVANCED_FACE ( 'NONE', ( #348 ), #288, .T. ) ;
#51 = ORIENTED_EDGE ( 'NONE', *, *, #158, .F. ) ;
#52 = VERTEX_POINT ( 'NONE', #99 ) ;
#53 = EDGE_LOOP ( 'NONE', ( #342, #95 ) ) ;
#54 = DIRECTION ( 'NONE',  ( 0.0000000000000000000, 1.000000000000000000, 0.0000000000000000000 ) ) ;
#55 = DIRECTION ( 'NONE',  ( -0.0000000000000000000, -1.000000000000000000, -0.0000000000000000000 ) ) ;
#56 = PRODUCT_DEFINITION_CONTEXT ( 'detailed design', #8, 'design' ) ;
#57 = CARTESIAN_POINT ( 'NONE',  ( 7.776507174585692200E-016, 1.799999999999999600, -6.349999999999999600 ) ) ;
#58 = DIRECTION ( 'NONE',  ( 1.150791560227851500E-016, -0.3420201433256667700, 0.9396926207859092100 ) ) ;
#59 = DIRECTION ( 'NONE',  ( 0.0000000000000000000, 0.0000000000000000000, 1.000000000000000000 ) ) ;
#60 = ORIENTED_EDGE ( 'NONE', *, *, #209, .F. ) ;
#61 = EDGE_LOOP ( 'NONE', ( #156, #106, #163, #353 ) ) ;
#62 = DIRECTION ( 'NONE',  ( 0.0000000000000000000, 0.0000000000000000000, -1.000000000000000000 ) ) ;
#63 = ORIENTED_EDGE ( 'NONE', *, *, #184, .T. ) ;
#64 = CARTESIAN_POINT ( 'NONE',  ( 0.0000000000000000000, 2.899999999999998600, 5.349999999999999600 ) ) ;
#65 = CARTESIAN_POINT ( 'NONE',  ( 0.0000000000000000000, 1.799999999999999600, 0.0000000000000000000 ) ) ;
#66 = CARTESIAN_POINT ( 'NONE',  ( 0.0000000000000000000, 2.899999999999998600, 0.0000000000000000000 ) ) ;
#67 = VERTEX_POINT ( 'NONE', #100 ) ;
#68 = VERTEX_POINT ( 'NONE', #101 ) ;
#69 = CARTESIAN_POINT ( 'NONE',  ( 1.093807722277087600E-015, 6.399999999999997700, -8.931617859440281700 ) ) ;
#70 = VERTEX_POINT ( 'NONE', #369 ) ;
#71 = VERTEX_POINT ( 'NONE', #257 ) ;
#72 = STYLED_ITEM ( 'NONE', ( #135 ), #323 ) ;
#73 = CARTESIAN_POINT ( 'NONE',  ( 1.313433692085536500E-015, 6.426746881030733300, 10.72500000000000000 ) ) ;
#74 = ORIENTED_EDGE ( 'NONE', *, *, #147, .F. ) ;
#75 = DIRECTION ( 'NONE',  ( 0.0000000000000000000, 1.000000000000000000, 0.0000000000000000000 ) ) ;
#76 = APPLICATION_PROTOCOL_DEFINITION ( 'draft international standard', 'automotive_design', 1998, #43 ) ;
#77 = DIRECTION ( 'NONE',  ( 0.0000000000000000000, 1.000000000000000000, 0.0000000000000000000 ) ) ;
#78 = DIRECTION ( 'NONE',  ( 0.0000000000000000000, 0.0000000000000000000, 1.000000000000000000 ) ) ;
#79 = ADVANCED_FACE ( 'NONE', ( #329 ), #380, .F. ) ;
#80 = FACE_OUTER_BOUND ( 'NONE', #255, .T. ) ;
#81 = CARTESIAN_POINT ( 'NONE',  ( 0.0000000000000000000, 1.799999999999999600, 0.0000000000000000000 ) ) ;
#82 = DIRECTION ( 'NONE',  ( 4.188538737676964600E-017, 0.9396926207859092100, -0.3420201433256664900 ) ) ;
#83 = AXIS2_PLACEMENT_3D ( 'NONE', #157, #92, #39 ) ;
#84 = AXIS2_PLACEMENT_3D ( 'NONE', #19, #45, #1 ) ;
#85 = AXIS2_PLACEMENT_3D ( 'NONE', #112, #29, #272 ) ;
#86 = ORIENTED_EDGE ( 'NONE', *, *, #258, .T. ) ;
#87 = ORIENTED_EDGE ( 'NONE', *, *, #218, .T. ) ;
#88 = DIRECTION ( 'NONE',  ( 0.0000000000000000000, 1.000000000000000000, 0.0000000000000000000 ) ) ;
#89 = AXIS2_PLACEMENT_3D ( 'NONE', #335, #328, #365 ) ;
#90 = EDGE_CURVE ( 'NONE', #246, #52, #289, .T. ) ;
#91 = AXIS2_PLACEMENT_3D ( 'NONE', #330, #300, #93 ) ;
#92 = DIRECTION ( 'NONE',  ( -0.0000000000000000000, -1.000000000000000000, -0.0000000000000000000 ) ) ;
#93 = DIRECTION ( 'NONE',  ( 0.0000000000000000000, 0.0000000000000000000, -1.000000000000000000 ) ) ;
#94 = ORIENTED_EDGE ( 'NONE', *, *, #110, .T. ) ;
#95 = ORIENTED_EDGE ( 'NONE', *, *, #158, .T. ) ;
#96 = DIRECTION ( 'NONE',  ( -0.0000000000000000000, 1.000000000000000000, -0.0000000000000000000 ) ) ;
#97 = DIRECTION ( 'NONE',  ( 0.0000000000000000000, 0.0000000000000000000, -1.000000000000000000 ) ) ;
#98 = SURFACE_SIDE_STYLE ('',( #219 ) ) ;
#99 = CARTESIAN_POINT ( 'NONE',  ( 1.313433692085536100E-015, 1.799999999999999600, 10.72499999999999800 ) ) ;
#100 = CARTESIAN_POINT ( 'NONE',  ( 6.551860375438339700E-016, 6.399999999999998600, -5.349999999999999600 ) ) ;
#101 = CARTESIAN_POINT ( 'NONE',  ( 0.0000000000000000000, 6.399999999999997700, 8.931617859440281700 ) ) ;
#102 = ORIENTED_EDGE ( 'NONE', *, *, #237, .F. ) ;
#103 = CARTESIAN_POINT ( 'NONE',  ( 0.0000000000000000000, 6.999999999999997300, 0.0000000000000000000 ) ) ;
#104 = DIRECTION ( 'NONE',  ( 0.0000000000000000000, -0.0000000000000000000, 1.000000000000000000 ) ) ;
#105 = DIRECTION ( 'NONE',  ( 0.0000000000000000000, 0.0000000000000000000, -1.000000000000000000 ) ) ;
#106 = ORIENTED_EDGE ( 'NONE', *, *, #143, .F. ) ;
#107 = AXIS2_PLACEMENT_3D ( 'NONE', #346, #114, #105 ) ;
#108 = EDGE_CURVE ( 'NONE', #315, #47, #364, .T. ) ;
#109 = CARTESIAN_POINT ( 'NONE',  ( 0.0000000000000000000, 1.799999999999999600, 0.0000000000000000000 ) ) ;
#110 = EDGE_CURVE ( 'NONE', #71, #314, #304, .T. ) ;
#111 = CARTESIAN_POINT ( 'NONE',  ( 1.107179771748458000E-015, 6.399999999999997700, -8.931617859440281700 ) ) ;
#112 = CARTESIAN_POINT ( 'NONE',  ( 0.0000000000000000000, 6.399999999999997700, 0.0000000000000000000 ) ) ;
#113 = EDGE_CURVE ( 'NONE', #314, #71, #217, .T. ) ;
#114 = DIRECTION ( 'NONE',  ( -0.0000000000000000000, -1.000000000000000000, -0.0000000000000000000 ) ) ;
#115 = AXIS2_PLACEMENT_3D ( 'NONE', #170, #176, #204 ) ;
#116 = SHAPE_DEFINITION_REPRESENTATION ( #251, #323 ) ;
#117 = AXIS2_PLACEMENT_3D ( 'NONE', #203, #210, #18 ) ;
#118 = CARTESIAN_POINT ( 'NONE',  ( 0.0000000000000000000, 6.999999999999997300, -9.150000000000002100 ) ) ;
#119 = AXIS2_PLACEMENT_3D ( 'NONE', #22, #394, #125 ) ;
#120 =( LENGTH_UNIT ( ) NAMED_UNIT ( * ) SI_UNIT ( .MILLI., .METRE. ) );
#121 = AXIS2_PLACEMENT_3D ( 'NONE', #326, #332, #35 ) ;
#122 = DIRECTION ( 'NONE',  ( 0.0000000000000000000, 1.000000000000000000, 0.0000000000000000000 ) ) ;
#123 = DIRECTION ( 'NONE',  ( -0.0000000000000000000, -1.000000000000000000, -0.0000000000000000000 ) ) ;
#124 = CARTESIAN_POINT ( 'NONE',  ( 0.0000000000000000000, 2.899999999999998600, 6.349999999999999600 ) ) ;
#125 = DIRECTION ( 'NONE',  ( 0.0000000000000000000, 0.0000000000000000000, 1.000000000000000000 ) ) ;
#126 = CARTESIAN_POINT ( 'NONE',  ( 7.776507174585692200E-016, 2.899999999999998600, -6.349999999999999600 ) ) ;
#127 = EDGE_LOOP ( 'NONE', ( #299, #154, #350, #160 ) ) ;
#128 = CARTESIAN_POINT ( 'NONE',  ( 0.0000000000000000000, 0.0000000000000000000, 0.0000000000000000000 ) ) ;
#129 = DIRECTION ( 'NONE',  ( -0.0000000000000000000, -1.000000000000000000, -0.0000000000000000000 ) ) ;
#130 = CARTESIAN_POINT ( 'NONE',  ( 0.0000000000000000000, 1.799999999999999600, 9.599999999999999600 ) ) ;
#131 = EDGE_LOOP ( 'NONE', ( #333, #60 ) ) ;
#132 = CARTESIAN_POINT ( 'NONE',  ( 0.0000000000000000000, 1.799999999999999600, 6.349999999999999600 ) ) ;
#133 = CARTESIAN_POINT ( 'NONE',  ( 0.0000000000000000000, 6.399999999999998600, 5.349999999999999600 ) ) ;
#134 = AXIS2_PLACEMENT_3D ( 'NONE', #109, #148, #229 ) ;
#135 = PRESENTATION_STYLE_ASSIGNMENT (( #325 ) ) ;
#136 = SURFACE_STYLE_FILL_AREA ( #24 ) ;
#137 = COLOUR_RGB ( '',0.7764705882352941300, 0.7568627450980391900, 0.7372549019607843600 ) ;
#138 = AXIS2_PLACEMENT_3D ( 'NONE', #383, #30, #10 ) ;
#139 =( NAMED_UNIT ( * ) SI_UNIT ( $, .STERADIAN. ) SOLID_ANGLE_UNIT ( ) );
#140 = EDGE_LOOP ( 'NONE', ( #290, #322, #240, #338 ) ) ;
#141 = VERTEX_POINT ( 'NONE', #57 ) ;
#142 = ADVANCED_FACE ( 'NONE', ( #278 ), #269, .T. ) ;
#143 = EDGE_CURVE ( 'NONE', #70, #357, #270, .T. ) ;
#144 = ADVANCED_FACE ( 'NONE', ( #281 ), #261, .F. ) ;
#145 = EDGE_CURVE ( 'NONE', #371, #47, #263, .T. ) ;
#146 = ADVANCED_FACE ( 'NONE', ( #277, #275 ), #241, .F. ) ;
#147 = EDGE_CURVE ( 'NONE', #33, #352, #250, .T. ) ;
#148 = DIRECTION ( 'NONE',  ( -0.0000000000000000000, -1.000000000000000000, -0.0000000000000000000 ) ) ;
#149 = ADVANCED_FACE ( 'NONE', ( #268, #245 ), #235, .F. ) ;
#150 = ORIENTED_EDGE ( 'NONE', *, *, #5, .T. ) ;
#151 = DIRECTION ( 'NONE',  ( 0.0000000000000000000, 0.0000000000000000000, 1.000000000000000000 ) ) ;
#152 = AXIS2_PLACEMENT_3D ( 'NONE', #21, #265, #2 ) ;
#153 = AXIS2_PLACEMENT_3D ( 'NONE', #31, #55, #15 ) ;
#154 = ORIENTED_EDGE ( 'NONE', *, *, #242, .T. ) ;
#155 = EDGE_CURVE ( 'NONE', #319, #67, #249, .T. ) ;
#156 = ORIENTED_EDGE ( 'NONE', *, *, #242, .F. ) ;
#157 = CARTESIAN_POINT ( 'NONE',  ( 0.0000000000000000000, -4.940811985394551800, 0.0000000000000000000 ) ) ;
#158 = EDGE_CURVE ( 'NONE', #52, #246, #243, .T. ) ;
#159 = VECTOR ( 'NONE', #207, 1000.000000000000000 ) ;
#160 = ORIENTED_EDGE ( 'NONE', *, *, #230, .F. ) ;
#161 = AXIS2_PLACEMENT_3D ( 'NONE', #254, #248, #260 ) ;
#162 = FILL_AREA_STYLE_COLOUR ( '', #223 ) ;
#163 = ORIENTED_EDGE ( 'NONE', *, *, #230, .T. ) ;
#164 = PRODUCT ( 'Hositrad_CF16-12.7-R', 'Hositrad_CF16-12.7-R', '', ( #222 ) ) ;
#165 = AXIS2_PLACEMENT_3D ( 'NONE', #81, #340, #59 ) ;
#166 = VECTOR ( 'NONE', #303, 1000.000000000000000 ) ;
#167 = PLANE ( 'NONE',  #197 ) ;
#168 = MECHANICAL_DESIGN_GEOMETRIC_PRESENTATION_REPRESENTATION (  '', ( #389 ), #297 ) ;
#169 = DIRECTION ( 'NONE',  ( 0.0000000000000000000, 0.0000000000000000000, -1.000000000000000000 ) ) ;
#170 = CARTESIAN_POINT ( 'NONE',  ( 0.0000000000000000000, 6.399999999999997700, 0.0000000000000000000 ) ) ;
#171 =( GEOMETRIC_REPRESENTATION_CONTEXT ( 3 ) GLOBAL_UNCERTAINTY_ASSIGNED_CONTEXT ( ( #13 ) ) GLOBAL_UNIT_ASSIGNED_CONTEXT ( ( #253, #344, #4 ) ) REPRESENTATION_CONTEXT ( 'NONE', 'WORKASPACE' ) );
#172 = CARTESIAN_POINT ( 'NONE',  ( 0.0000000000000000000, 6.999999999999997300, 0.0000000000000000000 ) ) ;
#173 = CIRCLE ( 'NONE', #345, 6.349999999999999600 ) ;
#174 = CIRCLE ( 'NONE', #16, 6.349999999999999600 ) ;
#175 = VECTOR ( 'NONE', #26, 1000.000000000000000 ) ;
#176 = DIRECTION ( 'NONE',  ( 0.0000000000000000000, 1.000000000000000000, 0.0000000000000000000 ) ) ;
#177 = CARTESIAN_POINT ( 'NONE',  ( 0.0000000000000000000, 2.899999999999998600, 0.0000000000000000000 ) ) ;
#178 = AXIS2_PLACEMENT_3D ( 'NONE', #27, #216, #200 ) ;
#179 = ORIENTED_EDGE ( 'NONE', *, *, #370, .T. ) ;
#180 = LINE ( 'NONE', #368, #166 ) ;
#181 = AXIS2_PLACEMENT_3D ( 'NONE', #208, #212, #214 ) ;
#182 = VECTOR ( 'NONE', #82, 1000.000000000000000 ) ;
#183 =( NAMED_UNIT ( * ) SI_UNIT ( $, .STERADIAN. ) SOLID_ANGLE_UNIT ( ) );
#184 = EDGE_CURVE ( 'NONE', #141, #315, #252, .T. ) ;
#185 = LINE ( 'NONE', #331, #159 ) ;
#186 = LINE ( 'NONE', #69, #182 ) ;
#187 = VECTOR ( 'NONE', #88, 1000.000000000000000 ) ;
#188 = LINE ( 'NONE', #64, #187 ) ;
#189 = AXIS2_PLACEMENT_3D ( 'NONE', #198, #34, #286 ) ;
#190 = VERTEX_POINT ( 'NONE', #111 ) ;
#191 = PRODUCT_DEFINITION_FORMATION_WITH_SPECIFIED_SOURCE ( 'ANY', '', #164, .NOT_KNOWN. ) ;
#192 = CIRCLE ( 'NONE', #84, 5.349999999999999600 ) ;
#193 = AXIS2_PLACEMENT_3D ( 'NONE', #128, #37, #273 ) ;
#194 = EDGE_LOOP ( 'NONE', ( #390, #14 ) ) ;
#195 = AXIS2_PLACEMENT_3D ( 'NONE', #247, #293, #392 ) ;
#196 = EDGE_CURVE ( 'NONE', #71, #33, #232, .T. ) ;
#197 = AXIS2_PLACEMENT_3D ( 'NONE', #130, #122, #104 ) ;
#198 = CARTESIAN_POINT ( 'NONE',  ( 0.0000000000000000000, 6.399999999999998600, 8.199999999999999300 ) ) ;
#199 = EDGE_LOOP ( 'NONE', ( #285, #20 ) ) ;
#200 = DIRECTION ( 'NONE',  ( 0.0000000000000000000, 0.0000000000000000000, 1.000000000000000000 ) ) ;
#201 = SURFACE_STYLE_USAGE ( .BOTH. , #98 ) ;
#202 = EDGE_CURVE ( 'NONE', #141, #371, #244, .T. ) ;
#203 = CARTESIAN_POINT ( 'NONE',  ( 0.0000000000000000000, 2.899999999999998600, 0.0000000000000000000 ) ) ;
#204 = DIRECTION ( 'NONE',  ( 0.0000000000000000000, 0.0000000000000000000, 1.000000000000000000 ) ) ;
#205 = EDGE_CURVE ( 'NONE', #67, #319, #233, .T. ) ;
#206 = PRESENTATION_STYLE_ASSIGNMENT (( #201 ) ) ;
#207 = DIRECTION ( 'NONE',  ( -0.0000000000000000000, -1.000000000000000000, -0.0000000000000000000 ) ) ;
#208 = CARTESIAN_POINT ( 'NONE',  ( 0.0000000000000000000, 6.399999999999997700, 0.0000000000000000000 ) ) ;
#209 = EDGE_CURVE ( 'NONE', #190, #68, #227, .T. ) ;
#210 = DIRECTION ( 'NONE',  ( 0.0000000000000000000, 1.000000000000000000, 0.0000000000000000000 ) ) ;
#211 = ORIENTED_EDGE ( 'NONE', *, *, #196, .F. ) ;
#212 = DIRECTION ( 'NONE',  ( 0.0000000000000000000, 1.000000000000000000, 0.0000000000000000000 ) ) ;
#213 = FILL_AREA_STYLE_COLOUR ( '', #137 ) ;
#214 = DIRECTION ( 'NONE',  ( 0.0000000000000000000, 0.0000000000000000000, 1.000000000000000000 ) ) ;
#215 = LINE ( 'NONE', #12, #175 ) ;
#216 = DIRECTION ( 'NONE',  ( 0.0000000000000000000, 1.000000000000000000, 0.0000000000000000000 ) ) ;
#217 = CIRCLE ( 'NONE', #311, 9.150000000000002100 ) ;
#218 = EDGE_CURVE ( 'NONE', #314, #352, #226, .T. ) ;
#219 = SURFACE_STYLE_FILL_AREA ( #317 ) ;
#220 = EDGE_CURVE ( 'NONE', #352, #33, #224, .T. ) ;
#221 = VECTOR ( 'NONE', #7, 999.9999999999998900 ) ;
#222 = PRODUCT_CONTEXT ( 'NONE', #43, 'mechanical' ) ;
#223 = COLOUR_RGB ( '',0.7764705882352941300, 0.7568627450980391900, 0.7372549019607843600 ) ;
#224 = CIRCLE ( 'NONE', #107, 10.72500000000000000 ) ;
#225 = EDGE_LOOP ( 'NONE', ( #327, #262, #295, #302 ) ) ;
#226 = LINE ( 'NONE', #118, #221 ) ;
#227 = CIRCLE ( 'NONE', #85, 8.931617859440281700 ) ;
#228 = MANIFOLD_SOLID_BREP ( 'Boss-Extrude3', #378 ) ;
#229 = DIRECTION ( 'NONE',  ( 0.0000000000000000000, 0.0000000000000000000, -1.000000000000000000 ) ) ;
#230 = EDGE_CURVE ( 'NONE', #70, #319, #188, .T. ) ;
#231 = VECTOR ( 'NONE', #58, 999.9999999999998900 ) ;
#232 = LINE ( 'NONE', #379, #231 ) ;
#233 = CIRCLE ( 'NONE', #195, 5.349999999999999600 ) ;
#234 = EDGE_CURVE ( 'NONE', #357, #70, #192, .T. ) ;
#235 = PLANE ( 'NONE',  #49 ) ;
#236 = VECTOR ( 'NONE', #96, 1000.000000000000000 ) ;
#237 = EDGE_CURVE ( 'NONE', #190, #314, #186, .T. ) ;
#238 = DIRECTION ( 'NONE',  ( -0.0000000000000000000, 1.000000000000000000, -0.0000000000000000000 ) ) ;
#239 = ORIENTED_EDGE ( 'NONE', *, *, #362, .F. ) ;
#240 = ORIENTED_EDGE ( 'NONE', *, *, #90, .F. ) ;
#241 = PLANE ( 'NONE',  #189 ) ;
#242 = EDGE_CURVE ( 'NONE', #357, #67, #215, .T. ) ;
#243 = CIRCLE ( 'NONE', #134, 10.72499999999999800 ) ;
#244 = LINE ( 'NONE', #280, #236 ) ;
#245 = FACE_OUTER_BOUND ( 'NONE', #341, .T. ) ;
#246 = VERTEX_POINT ( 'NONE', #296 ) ;
#247 = CARTESIAN_POINT ( 'NONE',  ( 0.0000000000000000000, 6.399999999999998600, 0.0000000000000000000 ) ) ;
#248 = DIRECTION ( 'NONE',  ( -0.0000000000000000000, -1.000000000000000000, -0.0000000000000000000 ) ) ;
#249 = CIRCLE ( 'NONE', #178, 5.349999999999999600 ) ;
#250 = CIRCLE ( 'NONE', #282, 10.72500000000000000 ) ;
#251 = PRODUCT_DEFINITION_SHAPE ( 'NONE', 'NONE',  #11 ) ;
#252 = CIRCLE ( 'NONE', #360, 6.349999999999999600 ) ;
#253 =( LENGTH_UNIT ( ) NAMED_UNIT ( * ) SI_UNIT ( .MILLI., .METRE. ) );
#254 = CARTESIAN_POINT ( 'NONE',  ( 0.0000000000000000000, 6.999999999999997300, 0.0000000000000000000 ) ) ;
#255 = EDGE_LOOP ( 'NONE', ( #354, #239, #316, #321 ) ) ;
#256 = CARTESIAN_POINT ( 'NONE',  ( 0.0000000000000000000, 2.899999999999998600, 0.0000000000000000000 ) ) ;
#257 = CARTESIAN_POINT ( 'NONE',  ( 1.216992756652682300E-015, 6.999999999999997300, 9.150000000000002100 ) ) ;
#258 = EDGE_CURVE ( 'NONE', #47, #371, #173, .T. ) ;
#259 = CARTESIAN_POINT ( 'NONE',  ( 6.551860375438339700E-016, 2.899999999999998600, -5.349999999999999600 ) ) ;
#260 = DIRECTION ( 'NONE',  ( 0.0000000000000000000, 0.0000000000000000000, -1.000000000000000000 ) ) ;
#261 = CYLINDRICAL_SURFACE ( 'NONE', #291, 5.349999999999999600 ) ;
#262 = ORIENTED_EDGE ( 'NONE', *, *, #237, .T. ) ;
#263 = CIRCLE ( 'NONE', #138, 6.349999999999999600 ) ;
#264 = DIRECTION ( 'NONE',  ( -0.0000000000000000000, -1.000000000000000000, -0.0000000000000000000 ) ) ;
#265 = DIRECTION ( 'NONE',  ( 0.0000000000000000000, 1.000000000000000000, 0.0000000000000000000 ) ) ;
#266 = DIRECTION ( 'NONE',  ( 0.0000000000000000000, 0.0000000000000000000, 1.000000000000000000 ) ) ;
#267 = ORIENTED_EDGE ( 'NONE', *, *, #376, .F. ) ;
#268 = FACE_BOUND ( 'NONE', #199, .T. ) ;
#269 = CYLINDRICAL_SURFACE ( 'NONE', #83, 10.72499999999999800 ) ;
#270 = CIRCLE ( 'NONE', #117, 5.349999999999999600 ) ;
#271 = CIRCLE ( 'NONE', #89, 8.931617859440281700 ) ;
#272 = DIRECTION ( 'NONE',  ( 0.0000000000000000000, 0.0000000000000000000, -1.000000000000000000 ) ) ;
#273 = DIRECTION ( 'NONE',  ( 1.000000000000000000, 0.0000000000000000000, 0.0000000000000000000 ) ) ;
#274 =( NAMED_UNIT ( * ) PLANE_ANGLE_UNIT ( ) SI_UNIT ( $, .RADIAN. ) );
#275 = FACE_BOUND ( 'NONE', #194, .T. ) ;
#276 = LINE ( 'NONE', #307, #347 ) ;
#277 = FACE_OUTER_BOUND ( 'NONE', #131, .T. ) ;
#278 = FACE_OUTER_BOUND ( 'NONE', #140, .T. ) ;
#279 = ORIENTED_EDGE ( 'NONE', *, *, #362, .T. ) ;
#280 = CARTESIAN_POINT ( 'NONE',  ( 7.776507174585692200E-016, 1.799999999999999600, -6.349999999999999600 ) ) ;
#281 = FACE_OUTER_BOUND ( 'NONE', #61, .T. ) ;
#282 = AXIS2_PLACEMENT_3D ( 'NONE', #367, #298, #62 ) ;
#283 = VECTOR ( 'NONE', #238, 1000.000000000000000 ) ;
#284 = ORIENTED_EDGE ( 'NONE', *, *, #209, .T. ) ;
#285 = ORIENTED_EDGE ( 'NONE', *, *, #143, .T. ) ;
#286 = DIRECTION ( 'NONE',  ( 0.0000000000000000000, 0.0000000000000000000, -1.000000000000000000 ) ) ;
#287 = FACE_OUTER_BOUND ( 'NONE', #377, .T. ) ;
#288 = CONICAL_SURFACE ( 'NONE', #384, 9.150000000000002100, 1.221730476396032800 ) ;
#289 = CIRCLE ( 'NONE', #91, 10.72499999999999800 ) ;
#290 = ORIENTED_EDGE ( 'NONE', *, *, #220, .T. ) ;
#291 = AXIS2_PLACEMENT_3D ( 'NONE', #66, #75, #385 ) ;
#292 =( NAMED_UNIT ( * ) PLANE_ANGLE_UNIT ( ) SI_UNIT ( $, .RADIAN. ) );
#293 = DIRECTION ( 'NONE',  ( 0.0000000000000000000, 1.000000000000000000, 0.0000000000000000000 ) ) ;
#294 = FACE_BOUND ( 'NONE', #23, .T. ) ;
#295 = ORIENTED_EDGE ( 'NONE', *, *, #110, .F. ) ;
#296 = CARTESIAN_POINT ( 'NONE',  ( 0.0000000000000000000, 1.799999999999999600, -10.72499999999999800 ) ) ;
#297 =( GEOMETRIC_REPRESENTATION_CONTEXT ( 3 ) GLOBAL_UNCERTAINTY_ASSIGNED_CONTEXT ( ( #42 ) ) GLOBAL_UNIT_ASSIGNED_CONTEXT ( ( #120, #274, #139 ) ) REPRESENTATION_CONTEXT ( 'NONE', 'WORKASPACE' ) );
#298 = DIRECTION ( 'NONE',  ( -0.0000000000000000000, -1.000000000000000000, -0.0000000000000000000 ) ) ;
#299 = ORIENTED_EDGE ( 'NONE', *, *, #234, .F. ) ;
#300 = DIRECTION ( 'NONE',  ( -0.0000000000000000000, -1.000000000000000000, -0.0000000000000000000 ) ) ;
#301 = FACE_OUTER_BOUND ( 'NONE', #127, .T. ) ;
#302 = ORIENTED_EDGE ( 'NONE', *, *, #370, .F. ) ;
#303 = DIRECTION ( 'NONE',  ( 0.0000000000000000000, 0.9396926207859092100, 0.3420201433256664900 ) ) ;
#304 = CIRCLE ( 'NONE', #153, 9.150000000000002100 ) ;
#305 = DIRECTION ( 'NONE',  ( -0.0000000000000000000, -1.000000000000000000, -0.0000000000000000000 ) ) ;
#306 = CARTESIAN_POINT ( 'NONE',  ( 0.0000000000000000000, 6.426746881030733300, -10.72500000000000000 ) ) ;
#307 = CARTESIAN_POINT ( 'NONE',  ( 0.0000000000000000000, -4.940811985394551800, -10.72499999999999800 ) ) ;
#308 =( LENGTH_UNIT ( ) NAMED_UNIT ( * ) SI_UNIT ( .MILLI., .METRE. ) );
#309 = ORIENTED_EDGE ( 'NONE', *, *, #220, .F. ) ;
#310 = ORIENTED_EDGE ( 'NONE', *, *, #258, .F. ) ;
#311 = AXIS2_PLACEMENT_3D ( 'NONE', #172, #123, #97 ) ;
#312 = APPLICATION_PROTOCOL_DEFINITION ( 'draft international standard', 'automotive_design', 1998, #8 ) ;
#313 = ORIENTED_EDGE ( 'NONE', *, *, #113, .T. ) ;
#314 = VERTEX_POINT ( 'NONE', #359 ) ;
#315 = VERTEX_POINT ( 'NONE', #132 ) ;
#316 = ORIENTED_EDGE ( 'NONE', *, *, #108, .T. ) ;
#317 = FILL_AREA_STYLE ('',( #162 ) ) ;
#318 = ORIENTED_EDGE ( 'NONE', *, *, #184, .F. ) ;
#319 = VERTEX_POINT ( 'NONE', #133 ) ;
#320 = FACE_OUTER_BOUND ( 'NONE', #32, .T. ) ;
#321 = ORIENTED_EDGE ( 'NONE', *, *, #145, .F. ) ;
#322 = ORIENTED_EDGE ( 'NONE', *, *, #376, .T. ) ;
#323 = ADVANCED_BREP_SHAPE_REPRESENTATION ( 'Hositrad_CF16-12.7-R', ( #228, #193 ), #171 ) ;
#324 = CYLINDRICAL_SURFACE ( 'NONE', #165, 6.349999999999999600 ) ;
#325 = SURFACE_STYLE_USAGE ( .BOTH. , #28 ) ;
#326 = CARTESIAN_POINT ( 'NONE',  ( 0.0000000000000000000, -4.940811985394551800, 0.0000000000000000000 ) ) ;
#327 = ORIENTED_EDGE ( 'NONE', *, *, #6, .T. ) ;
#328 = DIRECTION ( 'NONE',  ( -0.0000000000000000000, -1.000000000000000000, -0.0000000000000000000 ) ) ;
#329 = FACE_OUTER_BOUND ( 'NONE', #361, .T. ) ;
#330 = CARTESIAN_POINT ( 'NONE',  ( 0.0000000000000000000, 1.799999999999999600, 0.0000000000000000000 ) ) ;
#331 = CARTESIAN_POINT ( 'NONE',  ( 1.313433692085536100E-015, -4.940811985394551800, 10.72499999999999800 ) ) ;
#332 = DIRECTION ( 'NONE',  ( -0.0000000000000000000, -1.000000000000000000, -0.0000000000000000000 ) ) ;
#333 = ORIENTED_EDGE ( 'NONE', *, *, #6, .F. ) ;
#334 = ORIENTED_EDGE ( 'NONE', *, *, #145, .T. ) ;
#335 = CARTESIAN_POINT ( 'NONE',  ( 0.0000000000000000000, 6.399999999999997700, 0.0000000000000000000 ) ) ;
#336 = MECHANICAL_DESIGN_GEOMETRIC_PRESENTATION_REPRESENTATION (  '', ( #72 ), #351 ) ;
#337 = FACE_OUTER_BOUND ( 'NONE', #17, .T. ) ;
#338 = ORIENTED_EDGE ( 'NONE', *, *, #5, .F. ) ;
#339 = ORIENTED_EDGE ( 'NONE', *, *, #108, .F. ) ;
#340 = DIRECTION ( 'NONE',  ( -0.0000000000000000000, 1.000000000000000000, -0.0000000000000000000 ) ) ;
#341 = EDGE_LOOP ( 'NONE', ( #86, #334 ) ) ;
#342 = ORIENTED_EDGE ( 'NONE', *, *, #90, .T. ) ;
#343 = UNCERTAINTY_MEASURE_WITH_UNIT (LENGTH_MEASURE( 1.000000000000000100E-005 ), #308, 'distance_accuracy_value', 'NONE');
#344 =( NAMED_UNIT ( * ) PLANE_ANGLE_UNIT ( ) SI_UNIT ( $, .RADIAN. ) );
#345 = AXIS2_PLACEMENT_3D ( 'NONE', #256, #264, #266 ) ;
#346 = CARTESIAN_POINT ( 'NONE',  ( 0.0000000000000000000, 6.426746881030733300, 0.0000000000000000000 ) ) ;
#347 = VECTOR ( 'NONE', #305, 1000.000000000000000 ) ;
#348 = FACE_OUTER_BOUND ( 'NONE', #356, .T. ) ;
#349 = ORIENTED_EDGE ( 'NONE', *, *, #218, .F. ) ;
#350 = ORIENTED_EDGE ( 'NONE', *, *, #205, .T. ) ;
#351 =( GEOMETRIC_REPRESENTATION_CONTEXT ( 3 ) GLOBAL_UNCERTAINTY_ASSIGNED_CONTEXT ( ( #343 ) ) GLOBAL_UNIT_ASSIGNED_CONTEXT ( ( #308, #292, #183 ) ) REPRESENTATION_CONTEXT ( 'NONE', 'WORKASPACE' ) );
#352 = VERTEX_POINT ( 'NONE', #306 ) ;
#353 = ORIENTED_EDGE ( 'NONE', *, *, #155, .T. ) ;
#354 = ORIENTED_EDGE ( 'NONE', *, *, #202, .F. ) ;
#355 = ORIENTED_EDGE ( 'NONE', *, *, #196, .T. ) ;
#356 = EDGE_LOOP ( 'NONE', ( #313, #355, #309, #349 ) ) ;
#357 = VERTEX_POINT ( 'NONE', #259 ) ;
#358 = CYLINDRICAL_SURFACE ( 'NONE', #152, 5.349999999999999600 ) ;
#359 = CARTESIAN_POINT ( 'NONE',  ( 0.0000000000000000000, 6.999999999999997300, -9.150000000000002100 ) ) ;
#360 = AXIS2_PLACEMENT_3D ( 'NONE', #65, #54, #151 ) ;
#361 = EDGE_LOOP ( 'NONE', ( #318, #374, #310, #339 ) ) ;
#362 = EDGE_CURVE ( 'NONE', #315, #141, #174, .T. ) ;
#363 = ORIENTED_EDGE ( 'NONE', *, *, #113, .F. ) ;
#364 = LINE ( 'NONE', #3, #283 ) ;
#365 = DIRECTION ( 'NONE',  ( 0.0000000000000000000, 0.0000000000000000000, -1.000000000000000000 ) ) ;
#366 = DIRECTION ( 'NONE',  ( 0.0000000000000000000, -0.0000000000000000000, 1.000000000000000000 ) ) ;
#367 = CARTESIAN_POINT ( 'NONE',  ( 0.0000000000000000000, 6.426746881030733300, 0.0000000000000000000 ) ) ;
#368 = CARTESIAN_POINT ( 'NONE',  ( 0.0000000000000000000, 6.399999999999997700, 8.931617859440281700 ) ) ;
#369 = CARTESIAN_POINT ( 'NONE',  ( 0.0000000000000000000, 2.899999999999998600, 5.349999999999999600 ) ) ;
#370 = EDGE_CURVE ( 'NONE', #68, #71, #180, .T. ) ;
#371 = VERTEX_POINT ( 'NONE', #126 ) ;
#372 = DIRECTION ( 'NONE',  ( 0.0000000000000000000, 1.000000000000000000, 0.0000000000000000000 ) ) ;
#373 = CARTESIAN_POINT ( 'NONE',  ( 0.0000000000000000000, 1.799999999999999600, 0.0000000000000000000 ) ) ;
#374 = ORIENTED_EDGE ( 'NONE', *, *, #202, .T. ) ;
#375 = PRESENTATION_LAYER_ASSIGNMENT (  '', '', ( #72 ) ) ;
#376 = EDGE_CURVE ( 'NONE', #33, #52, #185, .T. ) ;
#377 = EDGE_LOOP ( 'NONE', ( #267, #46, #150, #51 ) ) ;
#378 = CLOSED_SHELL ( 'NONE', ( #38, #44, #50, #142, #79, #36, #25, #40, #41, #146, #48, #149, #144 ) ) ;
#379 = CARTESIAN_POINT ( 'NONE',  ( 1.120551821219828300E-015, 6.999999999999997300, 9.150000000000002100 ) ) ;
#380 = CYLINDRICAL_SURFACE ( 'NONE', #119, 6.349999999999999600 ) ;
#381 = FACE_OUTER_BOUND ( 'NONE', #225, .T. ) ;
#382 = CONICAL_SURFACE ( 'NONE', #181, 8.931617859440281700, 0.3490658503988635100 ) ;
#383 = CARTESIAN_POINT ( 'NONE',  ( 0.0000000000000000000, 2.899999999999998600, 0.0000000000000000000 ) ) ;
#384 = AXIS2_PLACEMENT_3D ( 'NONE', #103, #129, #169 ) ;
#385 = DIRECTION ( 'NONE',  ( 0.0000000000000000000, 0.0000000000000000000, 1.000000000000000000 ) ) ;
#386 = CONICAL_SURFACE ( 'NONE', #115, 8.931617859440281700, 0.3490658503988635100 ) ;
#387 = FACE_OUTER_BOUND ( 'NONE', #53, .T. ) ;
#388 = CONICAL_SURFACE ( 'NONE', #161, 9.150000000000002100, 1.221730476396032800 ) ;
#389 = STYLED_ITEM ( 'NONE', ( #206 ), #228 ) ;
#390 = ORIENTED_EDGE ( 'NONE', *, *, #155, .F. ) ;
#391 = PRESENTATION_LAYER_ASSIGNMENT (  '', '', ( #389 ) ) ;
#392 = DIRECTION ( 'NONE',  ( 0.0000000000000000000, 0.0000000000000000000, 1.000000000000000000 ) ) ;
#393 = CYLINDRICAL_SURFACE ( 'NONE', #121, 10.72499999999999800 ) ;
#394 = DIRECTION ( 'NONE',  ( -0.0000000000000000000, 1.000000000000000000, -0.0000000000000000000 ) ) ;
ENDSEC;
END-ISO-10303-21;
