ISO-10303-21;
HEADER;
FILE_DESCRIPTION (( 'STEP AP214' ),
    '1' );
FILE_NAME ('Hositrad_KF10B-GQ.STEP',
    '2017-03-23T10:36:06',
    ( 'Gebruiker' ),
    ( '' ),
    'SwSTEP 2.0',
    'SolidWorks 2017',
    '' );
FILE_SCHEMA (( 'AUTOMOTIVE_DESIGN' ));
ENDSEC;

DATA;
#1 = CARTESIAN_POINT ( 'NONE',  ( 1.334541546946369600E-015, 4.999999999999997300, 7.535898384862262500 ) ) ;
#2 = DIRECTION ( 'NONE',  ( 0.0000000000000000000, 0.0000000000000000000, -1.000000000000000000 ) ) ;
#3 = DIRECTION ( 'NONE',  ( 0.0000000000000000000, 0.0000000000000000000, -1.000000000000000000 ) ) ;
#4 = COLOUR_RGB ( '',0.7921568627450980000, 0.8196078431372548800, 0.9333333333333333500 ) ;
#5 = CARTESIAN_POINT ( 'NONE',  ( 0.0000000000000000000, 3.198598838310105400, 0.0000000000000000000 ) ) ;
#6 = DIRECTION ( 'NONE',  ( -0.0000000000000000000, 1.000000000000000000, -0.0000000000000000000 ) ) ;
#7 = ORIENTED_EDGE ( 'NONE', *, *, #29, .T. ) ;
#8 = ORIENTED_EDGE ( 'NONE', *, *, #213, .F. ) ;
#9 = DIRECTION ( 'NONE',  ( 1.000000000000000000, 0.0000000000000000000, 0.0000000000000000000 ) ) ;
#10 = ORIENTED_EDGE ( 'NONE', *, *, #44, .T. ) ;
#11 = VERTEX_POINT ( 'NONE', #99 ) ;
#12 = EDGE_CURVE ( 'NONE', #11, #207, #174, .T. ) ;
#13 =( GEOMETRIC_REPRESENTATION_CONTEXT ( 3 ) GLOBAL_UNCERTAINTY_ASSIGNED_CONTEXT ( ( #16 ) ) GLOBAL_UNIT_ASSIGNED_CONTEXT ( ( #275, #274, #271 ) ) REPRESENTATION_CONTEXT ( 'NONE', 'WORKASPACE' ) );
#14 = FACE_OUTER_BOUND ( 'NONE', #239, .T. ) ;
#15 = CARTESIAN_POINT ( 'NONE',  ( 0.0000000000000000000, 0.3000000000000016500, 0.0000000000000000000 ) ) ;
#16 = UNCERTAINTY_MEASURE_WITH_UNIT (LENGTH_MEASURE( 1.000000000000000100E-005 ), #275, 'distance_accuracy_value', 'NONE');
#17 = EDGE_LOOP ( 'NONE', ( #26, #253, #95, #161 ) ) ;
#18 = DIRECTION ( 'NONE',  ( 0.0000000000000000000, -1.000000000000000000, 0.0000000000000000000 ) ) ;
#19 = ADVANCED_FACE ( 'NONE', ( #232 ), #48, .T. ) ;
#20 = DIRECTION ( 'NONE',  ( 0.0000000000000000000, 0.0000000000000000000, 1.000000000000000000 ) ) ;
#21 = CARTESIAN_POINT ( 'NONE',  ( 0.0000000000000000000, 3.198598838310105400, 0.0000000000000000000 ) ) ;
#22 = DIRECTION ( 'NONE',  ( -1.000000000000000000, -0.0000000000000000000, -0.0000000000000000000 ) ) ;
#23 = CARTESIAN_POINT ( 'NONE',  ( 0.0000000000000000000, 0.3000000000000016500, 0.0000000000000000000 ) ) ;
#24 = DIRECTION ( 'NONE',  ( -1.224646799147351500E-016, 0.0000000000000000000, -1.000000000000000000 ) ) ;
#25 = CONICAL_SURFACE ( 'NONE', #241, 7.535898384862262500, 1.308996938995746100 ) ;
#26 = ORIENTED_EDGE ( 'NONE', *, *, #198, .F. ) ;
#27 = EDGE_LOOP ( 'NONE', ( #7, #79 ) ) ;
#28 = CARTESIAN_POINT ( 'NONE',  ( 0.0000000000000000000, 4.999999999999997300, -7.535898384862262500 ) ) ;
#29 = EDGE_CURVE ( 'NONE', #37, #88, #124, .T. ) ;
#30 = AXIS2_PLACEMENT_3D ( 'NONE', #252, #251, #246 ) ;
#31 =( NAMED_UNIT ( * ) PLANE_ANGLE_UNIT ( ) SI_UNIT ( $, .RADIAN. ) );
#32 = CIRCLE ( 'NONE', #34, 0.2999999999999999300 ) ;
#33 = ORIENTED_EDGE ( 'NONE', *, *, #245, .F. ) ;
#34 = AXIS2_PLACEMENT_3D ( 'NONE', #228, #69, #203 ) ;
#35 = FACE_OUTER_BOUND ( 'NONE', #242, .T. ) ;
#36 = ORIENTED_EDGE ( 'NONE', *, *, #186, .F. ) ;
#37 = VERTEX_POINT ( 'NONE', #28 ) ;
#38 = DIRECTION ( 'NONE',  ( 1.000000000000000000, 0.0000000000000000000, -1.224646799147353200E-016 ) ) ;
#39 = CARTESIAN_POINT ( 'NONE',  ( 1.714505518806293500E-015, 2.232673012021034500, 13.99999999999999100 ) ) ;
#40 = ADVANCED_FACE ( 'NONE', ( #112 ), #54, .T. ) ;
#41 = SURFACE_STYLE_FILL_AREA ( #288 ) ;
#42 = ADVANCED_FACE ( 'NONE', ( #164 ), #219, .T. ) ;
#43 = CARTESIAN_POINT ( 'NONE',  ( 0.0000000000000000000, -9.184850993605144000E-016, 0.0000000000000000000 ) ) ;
#44 = EDGE_CURVE ( 'NONE', #80, #125, #62, .T. ) ;
#45 = CARTESIAN_POINT ( 'NONE',  ( 0.0000000000000000000, 4.999999999999997300, 0.0000000000000000000 ) ) ;
#46 = CIRCLE ( 'NONE', #146, 1.000000000000000900 ) ;
#47 = AXIS2_PLACEMENT_3D ( 'NONE', #229, #225, #222 ) ;
#48 = PLANE ( 'NONE',  #199 ) ;
#49 = CARTESIAN_POINT ( 'NONE',  ( 0.0000000000000000000, 4.999999999999997300, 0.0000000000000000000 ) ) ;
#50 = DIRECTION ( 'NONE',  ( -0.0000000000000000000, 1.000000000000000000, -0.0000000000000000000 ) ) ;
#51 = ORIENTED_EDGE ( 'NONE', *, *, #171, .F. ) ;
#52 = DIRECTION ( 'NONE',  ( 0.0000000000000000000, 0.0000000000000000000, -1.000000000000000000 ) ) ;
#53 = DIRECTION ( 'NONE',  ( 0.0000000000000000000, -1.000000000000000000, 0.0000000000000000000 ) ) ;
#54 = CYLINDRICAL_SURFACE ( 'NONE', #248, 14.99999999999999300 ) ;
#55 = AXIS2_PLACEMENT_3D ( 'NONE', #21, #156, #294 ) ;
#56 =( NAMED_UNIT ( * ) PLANE_ANGLE_UNIT ( ) SI_UNIT ( $, .RADIAN. ) );
#57 = PRODUCT ( 'Hositrad_KF10B-GQ', 'Hositrad_KF10B-GQ', '', ( #143 ) ) ;
#58 = PRESENTATION_STYLE_ASSIGNMENT (( #278 ) ) ;
#59 = CIRCLE ( 'NONE', #136, 14.69999999999999200 ) ;
#60 = AXIS2_PLACEMENT_3D ( 'NONE', #128, #148, #119 ) ;
#61 = CARTESIAN_POINT ( 'NONE',  ( 0.0000000000000000000, -9.215718466126787700E-016, 0.0000000000000000000 ) ) ;
#62 = CIRCLE ( 'NONE', #236, 14.25881904510251100 ) ;
#63 = CARTESIAN_POINT ( 'NONE',  ( 1.836970198721028800E-015, 2.232673012021034500, -14.99999999999999300 ) ) ;
#64 = EDGE_LOOP ( 'NONE', ( #243, #192 ) ) ;
#65 = ORIENTED_EDGE ( 'NONE', *, *, #276, .F. ) ;
#66 = AXIS2_PLACEMENT_3D ( 'NONE', #49, #137, #180 ) ;
#67 = DIRECTION ( 'NONE',  ( 0.0000000000000000000, -1.000000000000000000, 0.0000000000000000000 ) ) ;
#68 = CARTESIAN_POINT ( 'NONE',  ( 0.0000000000000000000, 0.0000000000000000000, 0.0000000000000000000 ) ) ;
#69 = DIRECTION ( 'NONE',  ( 1.000000000000000000, 0.0000000000000000000, -1.224646799147353200E-016 ) ) ;
#70 = PRODUCT_DEFINITION_SHAPE ( 'NONE', 'NONE',  #247 ) ;
#71 = CYLINDRICAL_SURFACE ( 'NONE', #126, 14.99999999999999300 ) ;
#72 = MANIFOLD_SOLID_BREP ( 'Fillet2', #74 ) ;
#73 = DIRECTION ( 'NONE',  ( 0.0000000000000000000, 0.0000000000000000000, -1.000000000000000000 ) ) ;
#74 = CLOSED_SHELL ( 'NONE', ( #115, #129, #244, #40, #221, #293, #267, #19, #42, #218 ) ) ;
#75 = ORIENTED_EDGE ( 'NONE', *, *, #100, .T. ) ;
#76 = AXIS2_PLACEMENT_3D ( 'NONE', #231, #233, #220 ) ;
#77 = SURFACE_STYLE_USAGE ( .BOTH. , #237 ) ;
#78 = CIRCLE ( 'NONE', #47, 14.99999999999999300 ) ;
#79 = ORIENTED_EDGE ( 'NONE', *, *, #82, .T. ) ;
#80 = VERTEX_POINT ( 'NONE', #183 ) ;
#81 = AXIS2_PLACEMENT_3D ( 'NONE', #256, #104, #238 ) ;
#82 = EDGE_CURVE ( 'NONE', #88, #37, #90, .T. ) ;
#83 = PRODUCT_DEFINITION_CONTEXT ( 'detailed design', #281, 'design' ) ;
#84 = COLOUR_RGB ( '',0.7921568627450980000, 0.8196078431372548800, 0.9333333333333333500 ) ;
#85 = TOROIDAL_SURFACE ( 'NONE', #76, 14.69999999999999200, 0.2999999999999999900 ) ;
#86 = SURFACE_STYLE_FILL_AREA ( #102 ) ;
#87 = DIRECTION ( 'NONE',  ( 0.0000000000000000000, -1.000000000000000000, 0.0000000000000000000 ) ) ;
#88 = VERTEX_POINT ( 'NONE', #1 ) ;
#89 = CARTESIAN_POINT ( 'NONE',  ( 0.0000000000000000000, -9.215718466126787700E-016, 0.0000000000000000000 ) ) ;
#90 = CIRCLE ( 'NONE', #30, 7.535898384862262500 ) ;
#91 = AXIS2_PLACEMENT_3D ( 'NONE', #177, #181, #160 ) ;
#92 = CARTESIAN_POINT ( 'NONE',  ( 0.0000000000000000000, 4.999999999999997300, -7.535898384862262500 ) ) ;
#93 = VECTOR ( 'NONE', #226, 1000.000000000000000 ) ;
#94 = CARTESIAN_POINT ( 'NONE',  ( 0.0000000000000000000, 55.25579619824175400, 0.0000000000000000000 ) ) ;
#95 = ORIENTED_EDGE ( 'NONE', *, *, #142, .T. ) ;
#96 = ORIENTED_EDGE ( 'NONE', *, *, #116, .F. ) ;
#97 = DIRECTION ( 'NONE',  ( -0.0000000000000000000, 1.000000000000000000, -0.0000000000000000000 ) ) ;
#98 =( GEOMETRIC_REPRESENTATION_CONTEXT ( 3 ) GLOBAL_UNCERTAINTY_ASSIGNED_CONTEXT ( ( #259 ) ) GLOBAL_UNIT_ASSIGNED_CONTEXT ( ( #190, #31, #167 ) ) REPRESENTATION_CONTEXT ( 'NONE', 'WORKASPACE' ) );
#99 = CARTESIAN_POINT ( 'NONE',  ( 1.836970198721028800E-015, 0.3000000000000016500, -14.99999999999999300 ) ) ;
#100 = EDGE_CURVE ( 'NONE', #207, #284, #78, .T. ) ;
#101 = CIRCLE ( 'NONE', #121, 14.69999999999999200 ) ;
#102 = FILL_AREA_STYLE ('',( #255 ) ) ;
#103 = FACE_OUTER_BOUND ( 'NONE', #64, .T. ) ;
#104 = DIRECTION ( 'NONE',  ( 0.0000000000000000000, -1.000000000000000000, 0.0000000000000000000 ) ) ;
#105 = EDGE_LOOP ( 'NONE', ( #109, #168, #216, #131 ) ) ;
#106 = ORIENTED_EDGE ( 'NONE', *, *, #12, .T. ) ;
#107 = CIRCLE ( 'NONE', #166, 14.99999999999999300 ) ;
#108 = AXIS2_PLACEMENT_3D ( 'NONE', #117, #113, #111 ) ;
#109 = ORIENTED_EDGE ( 'NONE', *, *, #260, .F. ) ;
#110 = ORIENTED_EDGE ( 'NONE', *, *, #213, .T. ) ;
#111 = DIRECTION ( 'NONE',  ( 0.0000000000000000000, 0.0000000000000000000, -1.000000000000000000 ) ) ;
#112 = FACE_OUTER_BOUND ( 'NONE', #196, .T. ) ;
#113 = DIRECTION ( 'NONE',  ( -0.0000000000000000000, 1.000000000000000000, -0.0000000000000000000 ) ) ;
#114 = STYLED_ITEM ( 'NONE', ( #133 ), #208 ) ;
#115 = ADVANCED_FACE ( 'NONE', ( #14 ), #85, .T. ) ;
#116 = EDGE_CURVE ( 'NONE', #88, #125, #289, .T. ) ;
#117 = CARTESIAN_POINT ( 'NONE',  ( 0.0000000000000000000, 0.3000000000000016500, 0.0000000000000000000 ) ) ;
#118 = CIRCLE ( 'NONE', #108, 14.99999999999999300 ) ;
#119 = DIRECTION ( 'NONE',  ( 0.0000000000000000000, 0.0000000000000000000, 1.000000000000000000 ) ) ;
#120 = APPLICATION_PROTOCOL_DEFINITION ( 'draft international standard', 'automotive_design', 1998, #281 ) ;
#121 = AXIS2_PLACEMENT_3D ( 'NONE', #89, #87, #73 ) ;
#122 = APPLICATION_CONTEXT ( 'automotive_design' ) ;
#123 = CARTESIAN_POINT ( 'NONE',  ( 0.0000000000000000000, 55.25579619824175400, 0.0000000000000000000 ) ) ;
#124 = CIRCLE ( 'NONE', #188, 7.535898384862262500 ) ;
#125 = VERTEX_POINT ( 'NONE', #205 ) ;
#126 = AXIS2_PLACEMENT_3D ( 'NONE', #123, #268, #20 ) ;
#127 = EDGE_CURVE ( 'NONE', #145, #284, #173, .T. ) ;
#128 = CARTESIAN_POINT ( 'NONE',  ( 0.0000000000000000000, 2.232673012021034500, -13.99999999999999100 ) ) ;
#129 = ADVANCED_FACE ( 'NONE', ( #154 ), #285, .T. ) ;
#130 = ORIENTED_EDGE ( 'NONE', *, *, #82, .F. ) ;
#131 = ORIENTED_EDGE ( 'NONE', *, *, #142, .F. ) ;
#132 = CARTESIAN_POINT ( 'NONE',  ( 1.818600496733818800E-015, -9.215718466126787700E-016, 14.69999999999999200 ) ) ;
#133 = PRESENTATION_STYLE_ASSIGNMENT (( #77 ) ) ;
#134 = PLANE ( 'NONE',  #227 ) ;
#135 = DIRECTION ( 'NONE',  ( 0.0000000000000000000, 0.0000000000000000000, -1.000000000000000000 ) ) ;
#136 = AXIS2_PLACEMENT_3D ( 'NONE', #61, #53, #52 ) ;
#137 = DIRECTION ( 'NONE',  ( 0.0000000000000000000, -1.000000000000000000, 0.0000000000000000000 ) ) ;
#138 = CARTESIAN_POINT ( 'NONE',  ( 1.836970198721028800E-015, 55.25579619824175400, -14.99999999999999300 ) ) ;
#139 = CARTESIAN_POINT ( 'NONE',  ( 0.0000000000000000000, -9.215718466126787700E-016, -14.69999999999999200 ) ) ;
#140 = CARTESIAN_POINT ( 'NONE',  ( 0.0000000000000000000, 0.3000000000000016500, 14.99999999999999300 ) ) ;
#141 = EDGE_LOOP ( 'NONE', ( #33, #149, #266, #51 ) ) ;
#142 = EDGE_CURVE ( 'NONE', #80, #207, #280, .T. ) ;
#143 = PRODUCT_CONTEXT ( 'NONE', #122, 'mechanical' ) ;
#144 = APPLICATION_PROTOCOL_DEFINITION ( 'draft international standard', 'automotive_design', 1998, #122 ) ;
#145 = VERTEX_POINT ( 'NONE', #140 ) ;
#146 = AXIS2_PLACEMENT_3D ( 'NONE', #39, #38, #24 ) ;
#147 = FACE_OUTER_BOUND ( 'NONE', #273, .T. ) ;
#148 = DIRECTION ( 'NONE',  ( -1.000000000000000000, -0.0000000000000000000, -0.0000000000000000000 ) ) ;
#149 = ORIENTED_EDGE ( 'NONE', *, *, #153, .F. ) ;
#150 = UNCERTAINTY_MEASURE_WITH_UNIT (LENGTH_MEASURE( 1.000000000000000100E-005 ), #209, 'distance_accuracy_value', 'NONE');
#151 = DIRECTION ( 'NONE',  ( -0.0000000000000000000, 1.000000000000000000, 0.0000000000000000000 ) ) ;
#152 = PRESENTATION_LAYER_ASSIGNMENT (  '', '', ( #114 ) ) ;
#153 = EDGE_CURVE ( 'NONE', #11, #145, #118, .T. ) ;
#154 = FACE_OUTER_BOUND ( 'NONE', #105, .T. ) ;
#155 = FILL_AREA_STYLE_COLOUR ( '', #4 ) ;
#156 = DIRECTION ( 'NONE',  ( -0.0000000000000000000, 1.000000000000000000, -0.0000000000000000000 ) ) ;
#157 = LINE ( 'NONE', #92, #93 ) ;
#158 = DIRECTION ( 'NONE',  ( 0.0000000000000000000, 0.0000000000000000000, 1.000000000000000000 ) ) ;
#159 = DIRECTION ( 'NONE',  ( 0.0000000000000000000, 0.0000000000000000000, 1.000000000000000000 ) ) ;
#160 = DIRECTION ( 'NONE',  ( 0.0000000000000000000, 0.0000000000000000000, -1.000000000000000000 ) ) ;
#161 = ORIENTED_EDGE ( 'NONE', *, *, #290, .F. ) ;
#162 = ORIENTED_EDGE ( 'NONE', *, *, #12, .F. ) ;
#163 = DIRECTION ( 'NONE',  ( 0.0000000000000000000, 0.0000000000000000000, 1.000000000000000000 ) ) ;
#164 = FACE_OUTER_BOUND ( 'NONE', #17, .T. ) ;
#165 = DIRECTION ( 'NONE',  ( 0.0000000000000000000, 0.0000000000000000000, 1.000000000000000000 ) ) ;
#166 = AXIS2_PLACEMENT_3D ( 'NONE', #15, #6, #3 ) ;
#167 =( NAMED_UNIT ( * ) SI_UNIT ( $, .STERADIAN. ) SOLID_ANGLE_UNIT ( ) );
#168 = ORIENTED_EDGE ( 'NONE', *, *, #198, .T. ) ;
#169 = ORIENTED_EDGE ( 'NONE', *, *, #153, .T. ) ;
#170 = VECTOR ( 'NONE', #97, 1000.000000000000000 ) ;
#171 = EDGE_CURVE ( 'NONE', #175, #176, #101, .T. ) ;
#172 = MECHANICAL_DESIGN_GEOMETRIC_PRESENTATION_REPRESENTATION (  '', ( #114 ), #187 ) ;
#173 = LINE ( 'NONE', #217, #224 ) ;
#174 = LINE ( 'NONE', #138, #170 ) ;
#175 = VERTEX_POINT ( 'NONE', #132 ) ;
#176 = VERTEX_POINT ( 'NONE', #139 ) ;
#177 = CARTESIAN_POINT ( 'NONE',  ( 0.0000000000000000000, 2.232673012021034500, 0.0000000000000000000 ) ) ;
#178 = DIRECTION ( 'NONE',  ( -0.0000000000000000000, 1.000000000000000000, -0.0000000000000000000 ) ) ;
#179 = DIRECTION ( 'NONE',  ( 0.0000000000000000000, 0.0000000000000000000, -1.000000000000000000 ) ) ;
#180 = DIRECTION ( 'NONE',  ( 0.0000000000000000000, 0.0000000000000000000, -1.000000000000000000 ) ) ;
#181 = DIRECTION ( 'NONE',  ( 0.0000000000000000000, -1.000000000000000000, 0.0000000000000000000 ) ) ;
#182 = CARTESIAN_POINT ( 'NONE',  ( 0.0000000000000000000, 0.3000000000000016500, -14.69999999999999200 ) ) ;
#183 = CARTESIAN_POINT ( 'NONE',  ( 0.0000000000000000000, 3.198598838310105400, -14.25881904510251100 ) ) ;
#184 = DIRECTION ( 'NONE',  ( -0.0000000000000000000, 1.000000000000000000, -0.0000000000000000000 ) ) ;
#185 = ORIENTED_EDGE ( 'NONE', *, *, #127, .T. ) ;
#186 = EDGE_CURVE ( 'NONE', #176, #175, #59, .T. ) ;
#187 =( GEOMETRIC_REPRESENTATION_CONTEXT ( 3 ) GLOBAL_UNCERTAINTY_ASSIGNED_CONTEXT ( ( #150 ) ) GLOBAL_UNIT_ASSIGNED_CONTEXT ( ( #209, #56, #189 ) ) REPRESENTATION_CONTEXT ( 'NONE', 'WORKASPACE' ) );
#188 = AXIS2_PLACEMENT_3D ( 'NONE', #45, #178, #158 ) ;
#189 =( NAMED_UNIT ( * ) SI_UNIT ( $, .STERADIAN. ) SOLID_ANGLE_UNIT ( ) );
#190 =( LENGTH_UNIT ( ) NAMED_UNIT ( * ) SI_UNIT ( .MILLI., .METRE. ) );
#191 = ORIENTED_EDGE ( 'NONE', *, *, #116, .T. ) ;
#192 = ORIENTED_EDGE ( 'NONE', *, *, #171, .T. ) ;
#193 = AXIS2_PLACEMENT_3D ( 'NONE', #23, #18, #2 ) ;
#194 = CARTESIAN_POINT ( 'NONE',  ( 0.0000000000000000000, 2.232673012021034500, 0.0000000000000000000 ) ) ;
#195 = CONICAL_SURFACE ( 'NONE', #66, 7.535898384862262500, 1.308996938995746100 ) ;
#196 = EDGE_LOOP ( 'NONE', ( #110, #106, #75, #287 ) ) ;
#197 = CARTESIAN_POINT ( 'NONE',  ( -7.535898384862262500, 4.999999999999998200, 0.0000000000000000000 ) ) ;
#198 = EDGE_CURVE ( 'NONE', #125, #284, #46, .T. ) ;
#199 = AXIS2_PLACEMENT_3D ( 'NONE', #197, #151, #163 ) ;
#200 = DIRECTION ( 'NONE',  ( 0.0000000000000000000, -0.0000000000000000000, -1.000000000000000000 ) ) ;
#201 = DIRECTION ( 'NONE',  ( -0.0000000000000000000, 1.000000000000000000, -0.0000000000000000000 ) ) ;
#202 = DIRECTION ( 'NONE',  ( 1.182917971378669300E-016, -0.2588190451025217900, 0.9659258262890679800 ) ) ;
#203 = DIRECTION ( 'NONE',  ( -1.224646799147353200E-016, 0.0000000000000000000, -1.000000000000000000 ) ) ;
#204 = CARTESIAN_POINT ( 'NONE',  ( 9.228813835721279100E-016, 4.999999999999997300, 7.535898384862262500 ) ) ;
#205 = CARTESIAN_POINT ( 'NONE',  ( 1.746201710320610800E-015, 3.198598838310105400, 14.25881904510251100 ) ) ;
#206 = CIRCLE ( 'NONE', #81, 14.99999999999999300 ) ;
#207 = VERTEX_POINT ( 'NONE', #63 ) ;
#208 = ADVANCED_BREP_SHAPE_REPRESENTATION ( 'Hositrad_KF10B-GQ', ( #72, #235 ), #98 ) ;
#209 =( LENGTH_UNIT ( ) NAMED_UNIT ( * ) SI_UNIT ( .MILLI., .METRE. ) );
#210 = AXIS2_PLACEMENT_3D ( 'NONE', #182, #22, #159 ) ;
#211 = CIRCLE ( 'NONE', #55, 14.25881904510251100 ) ;
#212 = ORIENTED_EDGE ( 'NONE', *, *, #290, .T. ) ;
#213 = EDGE_CURVE ( 'NONE', #145, #11, #107, .T. ) ;
#214 = AXIS2_PLACEMENT_3D ( 'NONE', #194, #269, #135 ) ;
#215 = VECTOR ( 'NONE', #202, 1000.000000000000000 ) ;
#216 = ORIENTED_EDGE ( 'NONE', *, *, #100, .F. ) ;
#217 = CARTESIAN_POINT ( 'NONE',  ( 0.0000000000000000000, 55.25579619824175400, 14.99999999999999300 ) ) ;
#218 = ADVANCED_FACE ( 'NONE', ( #282 ), #270, .T. ) ;
#219 = TOROIDAL_SURFACE ( 'NONE', #214, 13.99999999999999100, 1.000000000000000000 ) ;
#220 = DIRECTION ( 'NONE',  ( 0.0000000000000000000, 0.0000000000000000000, -1.000000000000000000 ) ) ;
#221 = ADVANCED_FACE ( 'NONE', ( #103 ), #134, .T. ) ;
#222 = DIRECTION ( 'NONE',  ( 0.0000000000000000000, 0.0000000000000000000, -1.000000000000000000 ) ) ;
#223 = CARTESIAN_POINT ( 'NONE',  ( 0.0000000000000000000, 4.999999999999997300, 0.0000000000000000000 ) ) ;
#224 = VECTOR ( 'NONE', #184, 1000.000000000000000 ) ;
#225 = DIRECTION ( 'NONE',  ( 0.0000000000000000000, -1.000000000000000000, 0.0000000000000000000 ) ) ;
#226 = DIRECTION ( 'NONE',  ( 0.0000000000000000000, -0.2588190451025217900, -0.9659258262890679800 ) ) ;
#227 = AXIS2_PLACEMENT_3D ( 'NONE', #43, #67, #200 ) ;
#228 = CARTESIAN_POINT ( 'NONE',  ( 1.800230794746608300E-015, 0.3000000000000016500, 14.69999999999999200 ) ) ;
#229 = CARTESIAN_POINT ( 'NONE',  ( 0.0000000000000000000, 2.232673012021034500, 0.0000000000000000000 ) ) ;
#230 = ORIENTED_EDGE ( 'NONE', *, *, #29, .F. ) ;
#231 = CARTESIAN_POINT ( 'NONE',  ( 0.0000000000000000000, 0.3000000000000016500, 0.0000000000000000000 ) ) ;
#232 = FACE_OUTER_BOUND ( 'NONE', #27, .T. ) ;
#233 = DIRECTION ( 'NONE',  ( 0.0000000000000000000, -1.000000000000000000, 0.0000000000000000000 ) ) ;
#234 = EDGE_CURVE ( 'NONE', #11, #176, #263, .T. ) ;
#235 = AXIS2_PLACEMENT_3D ( 'NONE', #68, #165, #9 ) ;
#236 = AXIS2_PLACEMENT_3D ( 'NONE', #5, #50, #292 ) ;
#237 = SURFACE_SIDE_STYLE ('',( #86 ) ) ;
#238 = DIRECTION ( 'NONE',  ( 0.0000000000000000000, 0.0000000000000000000, -1.000000000000000000 ) ) ;
#239 = EDGE_LOOP ( 'NONE', ( #8, #258, #36, #254 ) ) ;
#240 = ORIENTED_EDGE ( 'NONE', *, *, #260, .T. ) ;
#241 = AXIS2_PLACEMENT_3D ( 'NONE', #223, #249, #179 ) ;
#242 = EDGE_LOOP ( 'NONE', ( #96, #230, #283, #10 ) ) ;
#243 = ORIENTED_EDGE ( 'NONE', *, *, #186, .T. ) ;
#244 = ADVANCED_FACE ( 'NONE', ( #147 ), #25, .T. ) ;
#245 = EDGE_CURVE ( 'NONE', #145, #175, #32, .T. ) ;
#246 = DIRECTION ( 'NONE',  ( 0.0000000000000000000, 0.0000000000000000000, 1.000000000000000000 ) ) ;
#247 = PRODUCT_DEFINITION ( 'UNKNOWN', '', #261, #83 ) ;
#248 = AXIS2_PLACEMENT_3D ( 'NONE', #94, #201, #264 ) ;
#249 = DIRECTION ( 'NONE',  ( 0.0000000000000000000, -1.000000000000000000, 0.0000000000000000000 ) ) ;
#250 = CARTESIAN_POINT ( 'NONE',  ( 0.0000000000000000000, 2.232673012021034500, 14.99999999999999300 ) ) ;
#251 = DIRECTION ( 'NONE',  ( -0.0000000000000000000, 1.000000000000000000, -0.0000000000000000000 ) ) ;
#252 = CARTESIAN_POINT ( 'NONE',  ( 0.0000000000000000000, 4.999999999999997300, 0.0000000000000000000 ) ) ;
#253 = ORIENTED_EDGE ( 'NONE', *, *, #44, .F. ) ;
#254 = ORIENTED_EDGE ( 'NONE', *, *, #234, .F. ) ;
#255 = FILL_AREA_STYLE_COLOUR ( '', #84 ) ;
#256 = CARTESIAN_POINT ( 'NONE',  ( 0.0000000000000000000, 2.232673012021034500, 0.0000000000000000000 ) ) ;
#257 = FACE_OUTER_BOUND ( 'NONE', #272, .T. ) ;
#258 = ORIENTED_EDGE ( 'NONE', *, *, #245, .T. ) ;
#259 = UNCERTAINTY_MEASURE_WITH_UNIT (LENGTH_MEASURE( 1.000000000000000100E-005 ), #190, 'distance_accuracy_value', 'NONE');
#260 = EDGE_CURVE ( 'NONE', #125, #80, #211, .T. ) ;
#261 = PRODUCT_DEFINITION_FORMATION_WITH_SPECIFIED_SOURCE ( 'ANY', '', #57, .NOT_KNOWN. ) ;
#262 = STYLED_ITEM ( 'NONE', ( #58 ), #72 ) ;
#263 = CIRCLE ( 'NONE', #210, 0.2999999999999999300 ) ;
#264 = DIRECTION ( 'NONE',  ( 0.0000000000000000000, 0.0000000000000000000, 1.000000000000000000 ) ) ;
#265 = SHAPE_DEFINITION_REPRESENTATION ( #70, #208 ) ;
#266 = ORIENTED_EDGE ( 'NONE', *, *, #234, .T. ) ;
#267 = ADVANCED_FACE ( 'NONE', ( #35 ), #195, .T. ) ;
#268 = DIRECTION ( 'NONE',  ( -0.0000000000000000000, 1.000000000000000000, -0.0000000000000000000 ) ) ;
#269 = DIRECTION ( 'NONE',  ( 0.0000000000000000000, -1.000000000000000000, 0.0000000000000000000 ) ) ;
#270 = TOROIDAL_SURFACE ( 'NONE', #193, 14.69999999999999200, 0.2999999999999999900 ) ;
#271 =( NAMED_UNIT ( * ) SI_UNIT ( $, .STERADIAN. ) SOLID_ANGLE_UNIT ( ) );
#272 = EDGE_LOOP ( 'NONE', ( #162, #169, #185, #212 ) ) ;
#273 = EDGE_LOOP ( 'NONE', ( #130, #191, #240, #65 ) ) ;
#274 =( NAMED_UNIT ( * ) PLANE_ANGLE_UNIT ( ) SI_UNIT ( $, .RADIAN. ) );
#275 =( LENGTH_UNIT ( ) NAMED_UNIT ( * ) SI_UNIT ( .MILLI., .METRE. ) );
#276 = EDGE_CURVE ( 'NONE', #37, #80, #157, .T. ) ;
#277 = PRODUCT_RELATED_PRODUCT_CATEGORY ( 'part', '', ( #57 ) ) ;
#278 = SURFACE_STYLE_USAGE ( .BOTH. , #286 ) ;
#279 = PRESENTATION_LAYER_ASSIGNMENT (  '', '', ( #262 ) ) ;
#280 = CIRCLE ( 'NONE', #60, 1.000000000000000900 ) ;
#281 = APPLICATION_CONTEXT ( 'automotive_design' ) ;
#282 = FACE_OUTER_BOUND ( 'NONE', #141, .T. ) ;
#283 = ORIENTED_EDGE ( 'NONE', *, *, #276, .T. ) ;
#284 = VERTEX_POINT ( 'NONE', #250 ) ;
#285 = TOROIDAL_SURFACE ( 'NONE', #91, 13.99999999999999100, 1.000000000000000000 ) ;
#286 = SURFACE_SIDE_STYLE ('',( #41 ) ) ;
#287 = ORIENTED_EDGE ( 'NONE', *, *, #127, .F. ) ;
#288 = FILL_AREA_STYLE ('',( #155 ) ) ;
#289 = LINE ( 'NONE', #204, #215 ) ;
#290 = EDGE_CURVE ( 'NONE', #284, #207, #206, .T. ) ;
#291 = MECHANICAL_DESIGN_GEOMETRIC_PRESENTATION_REPRESENTATION (  '', ( #262 ), #13 ) ;
#292 = DIRECTION ( 'NONE',  ( 0.0000000000000000000, 0.0000000000000000000, 1.000000000000000000 ) ) ;
#293 = ADVANCED_FACE ( 'NONE', ( #257 ), #71, .T. ) ;
#294 = DIRECTION ( 'NONE',  ( 0.0000000000000000000, 0.0000000000000000000, 1.000000000000000000 ) ) ;
ENDSEC;
END-ISO-10303-21;
