ISO-10303-21;
HEADER;
FILE_DESCRIPTION (( 'STEP AP214' ),
    '1' );
FILE_NAME ('Hositrad_KF16B-GQ.STEP',
    '2017-03-23T10:35:44',
    ( 'Gebruiker' ),
    ( '' ),
    'SwSTEP 2.0',
    'SolidWorks 2017',
    '' );
FILE_SCHEMA (( 'AUTOMOTIVE_DESIGN' ));
ENDSEC;

DATA;
#1 = FACE_OUTER_BOUND ( 'NONE', #245, .T. ) ;
#2 = ORIENTED_EDGE ( 'NONE', *, *, #54, .T. ) ;
#3 = CARTESIAN_POINT ( 'NONE',  ( 0.0000000000000000000, 0.3000000000000016500, 0.0000000000000000000 ) ) ;
#4 = SHAPE_DEFINITION_REPRESENTATION ( #71, #200 ) ;
#5 = CARTESIAN_POINT ( 'NONE',  ( 0.0000000000000000000, 55.25579619824175400, 14.99999999999999300 ) ) ;
#6 = CARTESIAN_POINT ( 'NONE',  ( 0.0000000000000000000, 3.198598838310105400, -14.25881904510251100 ) ) ;
#7 = VERTEX_POINT ( 'NONE', #214 ) ;
#8 = CARTESIAN_POINT ( 'NONE',  ( 0.0000000000000000000, 0.3000000000000016500, -14.69999999999999200 ) ) ;
#9 = EDGE_CURVE ( 'NONE', #63, #61, #26, .T. ) ;
#10 = CARTESIAN_POINT ( 'NONE',  ( 1.836970198721028800E-015, 0.3000000000000016500, -14.99999999999999300 ) ) ;
#11 = DIRECTION ( 'NONE',  ( 0.0000000000000000000, -1.000000000000000000, 0.0000000000000000000 ) ) ;
#12 =( LENGTH_UNIT ( ) NAMED_UNIT ( * ) SI_UNIT ( .MILLI., .METRE. ) );
#13 = VERTEX_POINT ( 'NONE', #244 ) ;
#14 = DIRECTION ( 'NONE',  ( 0.0000000000000000000, 0.0000000000000000000, 1.000000000000000000 ) ) ;
#15 = CARTESIAN_POINT ( 'NONE',  ( -7.535898384862262500, 4.999999999999998200, 0.0000000000000000000 ) ) ;
#16 = MECHANICAL_DESIGN_GEOMETRIC_PRESENTATION_REPRESENTATION (  '', ( #60 ), #82 ) ;
#17 = CIRCLE ( 'NONE', #156, 14.69999999999999200 ) ;
#18 = UNCERTAINTY_MEASURE_WITH_UNIT (LENGTH_MEASURE( 1.000000000000000100E-005 ), #260, 'distance_accuracy_value', 'NONE');
#19 = ORIENTED_EDGE ( 'NONE', *, *, #27, .F. ) ;
#20 = ORIENTED_EDGE ( 'NONE', *, *, #201, .F. ) ;
#21 = EDGE_LOOP ( 'NONE', ( #189, #221, #40, #130 ) ) ;
#22 = ADVANCED_FACE ( 'NONE', ( #154 ), #203, .T. ) ;
#23 = EDGE_CURVE ( 'NONE', #61, #63, #264, .T. ) ;
#24 = ORIENTED_EDGE ( 'NONE', *, *, #53, .T. ) ;
#25 = PRESENTATION_STYLE_ASSIGNMENT (( #153 ) ) ;
#26 = CIRCLE ( 'NONE', #121, 14.99999999999999300 ) ;
#27 = EDGE_CURVE ( 'NONE', #62, #61, #140, .T. ) ;
#28 = DIRECTION ( 'NONE',  ( 0.0000000000000000000, 0.0000000000000000000, 1.000000000000000000 ) ) ;
#29 =( LENGTH_UNIT ( ) NAMED_UNIT ( * ) SI_UNIT ( .MILLI., .METRE. ) );
#30 = CARTESIAN_POINT ( 'NONE',  ( 0.0000000000000000000, 2.232673012021034500, -13.99999999999999100 ) ) ;
#31 = PRESENTATION_LAYER_ASSIGNMENT (  '', '', ( #47 ) ) ;
#32 =( NAMED_UNIT ( * ) SI_UNIT ( $, .STERADIAN. ) SOLID_ANGLE_UNIT ( ) );
#33 = ORIENTED_EDGE ( 'NONE', *, *, #268, .F. ) ;
#34 = PRODUCT_DEFINITION_FORMATION_WITH_SPECIFIED_SOURCE ( 'ANY', '', #247, .NOT_KNOWN. ) ;
#35 = EDGE_LOOP ( 'NONE', ( #174, #118, #170, #20 ) ) ;
#36 = CIRCLE ( 'NONE', #225, 7.535898384862262500 ) ;
#37 = VERTEX_POINT ( 'NONE', #73 ) ;
#38 = AXIS2_PLACEMENT_3D ( 'NONE', #255, #167, #43 ) ;
#39 = PRESENTATION_LAYER_ASSIGNMENT (  '', '', ( #60 ) ) ;
#40 = ORIENTED_EDGE ( 'NONE', *, *, #27, .T. ) ;
#41 = ORIENTED_EDGE ( 'NONE', *, *, #268, .T. ) ;
#42 = CARTESIAN_POINT ( 'NONE',  ( 0.0000000000000000000, 4.999999999999997300, 0.0000000000000000000 ) ) ;
#43 = DIRECTION ( 'NONE',  ( 0.0000000000000000000, 0.0000000000000000000, -1.000000000000000000 ) ) ;
#44 = LINE ( 'NONE', #187, #182 ) ;
#45 = CARTESIAN_POINT ( 'NONE',  ( 9.228813835721279100E-016, 4.999999999999997300, 7.535898384862262500 ) ) ;
#46 = CARTESIAN_POINT ( 'NONE',  ( 0.0000000000000000000, 4.999999999999997300, 0.0000000000000000000 ) ) ;
#47 = STYLED_ITEM ( 'NONE', ( #165 ), #200 ) ;
#48 = CARTESIAN_POINT ( 'NONE',  ( 0.0000000000000000000, 2.232673012021034500, 0.0000000000000000000 ) ) ;
#49 =( NAMED_UNIT ( * ) SI_UNIT ( $, .STERADIAN. ) SOLID_ANGLE_UNIT ( ) );
#50 = DIRECTION ( 'NONE',  ( 0.0000000000000000000, 0.0000000000000000000, 1.000000000000000000 ) ) ;
#51 = CIRCLE ( 'NONE', #246, 14.25881904510251100 ) ;
#52 = CARTESIAN_POINT ( 'NONE',  ( 1.714505518806293500E-015, 2.232673012021034500, 13.99999999999999100 ) ) ;
#53 = EDGE_CURVE ( 'NONE', #7, #62, #147, .T. ) ;
#54 = EDGE_CURVE ( 'NONE', #253, #117, #137, .T. ) ;
#55 = CARTESIAN_POINT ( 'NONE',  ( 0.0000000000000000000, 4.999999999999997300, 0.0000000000000000000 ) ) ;
#56 = LINE ( 'NONE', #45, #291 ) ;
#57 = ADVANCED_FACE ( 'NONE', ( #1 ), #142, .T. ) ;
#58 = PRODUCT_DEFINITION_CONTEXT ( 'detailed design', #238, 'design' ) ;
#59 = EDGE_CURVE ( 'NONE', #276, #37, #284, .T. ) ;
#60 = STYLED_ITEM ( 'NONE', ( #25 ), #125 ) ;
#61 = VERTEX_POINT ( 'NONE', #208 ) ;
#62 = VERTEX_POINT ( 'NONE', #6 ) ;
#63 = VERTEX_POINT ( 'NONE', #146 ) ;
#64 = ORIENTED_EDGE ( 'NONE', *, *, #242, .F. ) ;
#65 = AXIS2_PLACEMENT_3D ( 'NONE', #55, #98, #106 ) ;
#66 = FACE_OUTER_BOUND ( 'NONE', #35, .T. ) ;
#67 = DIRECTION ( 'NONE',  ( 0.0000000000000000000, 0.0000000000000000000, 1.000000000000000000 ) ) ;
#68 = ORIENTED_EDGE ( 'NONE', *, *, #23, .F. ) ;
#69 = DIRECTION ( 'NONE',  ( 0.0000000000000000000, -1.000000000000000000, 0.0000000000000000000 ) ) ;
#70 = DIRECTION ( 'NONE',  ( 0.0000000000000000000, -1.000000000000000000, 0.0000000000000000000 ) ) ;
#71 = PRODUCT_DEFINITION_SHAPE ( 'NONE', 'NONE',  #288 ) ;
#72 = DIRECTION ( 'NONE',  ( 1.000000000000000000, 0.0000000000000000000, -1.224646799147353200E-016 ) ) ;
#73 = CARTESIAN_POINT ( 'NONE',  ( 0.0000000000000000000, 0.3000000000000016500, 14.99999999999999300 ) ) ;
#74 = APPLICATION_PROTOCOL_DEFINITION ( 'draft international standard', 'automotive_design', 1998, #94 ) ;
#75 = FACE_OUTER_BOUND ( 'NONE', #198, .T. ) ;
#76 = AXIS2_PLACEMENT_3D ( 'NONE', #52, #273, #292 ) ;
#77 = PRODUCT_CONTEXT ( 'NONE', #94, 'mechanical' ) ;
#78 = TOROIDAL_SURFACE ( 'NONE', #237, 13.99999999999999100, 1.000000000000000000 ) ;
#79 = ORIENTED_EDGE ( 'NONE', *, *, #105, .T. ) ;
#80 = VERTEX_POINT ( 'NONE', #243 ) ;
#81 = ADVANCED_FACE ( 'NONE', ( #109 ), #289, .T. ) ;
#82 =( GEOMETRIC_REPRESENTATION_CONTEXT ( 3 ) GLOBAL_UNCERTAINTY_ASSIGNED_CONTEXT ( ( #18 ) ) GLOBAL_UNIT_ASSIGNED_CONTEXT ( ( #260, #190, #231 ) ) REPRESENTATION_CONTEXT ( 'NONE', 'WORKASPACE' ) );
#83 = ORIENTED_EDGE ( 'NONE', *, *, #248, .T. ) ;
#84 = SURFACE_STYLE_FILL_AREA ( #133 ) ;
#85 = EDGE_LOOP ( 'NONE', ( #2, #83 ) ) ;
#86 = UNCERTAINTY_MEASURE_WITH_UNIT (LENGTH_MEASURE( 1.000000000000000100E-005 ), #29, 'distance_accuracy_value', 'NONE');
#87 = AXIS2_PLACEMENT_3D ( 'NONE', #185, #183, #126 ) ;
#88 = EDGE_LOOP ( 'NONE', ( #132, #148, #79, #233 ) ) ;
#89 = CARTESIAN_POINT ( 'NONE',  ( 0.0000000000000000000, -9.215718466126787700E-016, -14.69999999999999200 ) ) ;
#90 = CARTESIAN_POINT ( 'NONE',  ( 0.0000000000000000000, 2.232673012021034500, 0.0000000000000000000 ) ) ;
#91 = COLOUR_RGB ( '',0.7921568627450980000, 0.8196078431372548800, 0.9333333333333333500 ) ;
#92 = AXIS2_PLACEMENT_3D ( 'NONE', #48, #150, #151 ) ;
#93 = CARTESIAN_POINT ( 'NONE',  ( 0.0000000000000000000, 4.999999999999997300, -7.535898384862262500 ) ) ;
#94 = APPLICATION_CONTEXT ( 'automotive_design' ) ;
#95 = DIRECTION ( 'NONE',  ( 0.0000000000000000000, 0.0000000000000000000, -1.000000000000000000 ) ) ;
#96 = APPLICATION_PROTOCOL_DEFINITION ( 'draft international standard', 'automotive_design', 1998, #238 ) ;
#97 = DIRECTION ( 'NONE',  ( -0.0000000000000000000, 1.000000000000000000, -0.0000000000000000000 ) ) ;
#98 = DIRECTION ( 'NONE',  ( 0.0000000000000000000, -1.000000000000000000, 0.0000000000000000000 ) ) ;
#99 = FACE_OUTER_BOUND ( 'NONE', #290, .T. ) ;
#100 = DIRECTION ( 'NONE',  ( -0.0000000000000000000, 1.000000000000000000, -0.0000000000000000000 ) ) ;
#101 = EDGE_CURVE ( 'NONE', #13, #7, #36, .T. ) ;
#102 = DIRECTION ( 'NONE',  ( 0.0000000000000000000, 0.0000000000000000000, -1.000000000000000000 ) ) ;
#103 = CARTESIAN_POINT ( 'NONE',  ( 0.0000000000000000000, 2.232673012021034500, 0.0000000000000000000 ) ) ;
#104 = ADVANCED_FACE ( 'NONE', ( #75 ), #277, .T. ) ;
#105 = EDGE_CURVE ( 'NONE', #80, #62, #216, .T. ) ;
#106 = DIRECTION ( 'NONE',  ( 0.0000000000000000000, 0.0000000000000000000, -1.000000000000000000 ) ) ;
#107 = EDGE_CURVE ( 'NONE', #80, #63, #162, .T. ) ;
#108 = AXIS2_PLACEMENT_3D ( 'NONE', #112, #97, #14 ) ;
#109 = FACE_OUTER_BOUND ( 'NONE', #212, .T. ) ;
#110 = ORIENTED_EDGE ( 'NONE', *, *, #114, .T. ) ;
#111 = CYLINDRICAL_SURFACE ( 'NONE', #87, 14.99999999999999300 ) ;
#112 = CARTESIAN_POINT ( 'NONE',  ( 0.0000000000000000000, 55.25579619824175400, 0.0000000000000000000 ) ) ;
#113 = ORIENTED_EDGE ( 'NONE', *, *, #59, .F. ) ;
#114 = EDGE_CURVE ( 'NONE', #62, #80, #51, .T. ) ;
#115 =( GEOMETRIC_REPRESENTATION_CONTEXT ( 3 ) GLOBAL_UNCERTAINTY_ASSIGNED_CONTEXT ( ( #86 ) ) GLOBAL_UNIT_ASSIGNED_CONTEXT ( ( #29, #188, #49 ) ) REPRESENTATION_CONTEXT ( 'NONE', 'WORKASPACE' ) );
#116 = ADVANCED_FACE ( 'NONE', ( #99 ), #155, .T. ) ;
#117 = VERTEX_POINT ( 'NONE', #240 ) ;
#118 = ORIENTED_EDGE ( 'NONE', *, *, #286, .T. ) ;
#119 = CARTESIAN_POINT ( 'NONE',  ( 0.0000000000000000000, 0.3000000000000016500, 0.0000000000000000000 ) ) ;
#120 = DIRECTION ( 'NONE',  ( 0.0000000000000000000, 0.0000000000000000000, 1.000000000000000000 ) ) ;
#121 = AXIS2_PLACEMENT_3D ( 'NONE', #103, #136, #269 ) ;
#122 = DIRECTION ( 'NONE',  ( -0.0000000000000000000, 1.000000000000000000, -0.0000000000000000000 ) ) ;
#123 = DIRECTION ( 'NONE',  ( -0.0000000000000000000, 1.000000000000000000, -0.0000000000000000000 ) ) ;
#124 = DIRECTION ( 'NONE',  ( 0.0000000000000000000, -1.000000000000000000, 0.0000000000000000000 ) ) ;
#125 = MANIFOLD_SOLID_BREP ( 'Fillet2', #285 ) ;
#126 = DIRECTION ( 'NONE',  ( 0.0000000000000000000, 0.0000000000000000000, 1.000000000000000000 ) ) ;
#127 = FILL_AREA_STYLE ('',( #259 ) ) ;
#128 = AXIS2_PLACEMENT_3D ( 'NONE', #90, #11, #95 ) ;
#129 = FILL_AREA_STYLE_COLOUR ( '', #204 ) ;
#130 = ORIENTED_EDGE ( 'NONE', *, *, #9, .F. ) ;
#131 = AXIS2_PLACEMENT_3D ( 'NONE', #30, #211, #236 ) ;
#132 = ORIENTED_EDGE ( 'NONE', *, *, #101, .F. ) ;
#133 = FILL_AREA_STYLE ('',( #129 ) ) ;
#134 = TOROIDAL_SURFACE ( 'NONE', #92, 13.99999999999999100, 1.000000000000000000 ) ;
#135 = AXIS2_PLACEMENT_3D ( 'NONE', #210, #72, #235 ) ;
#136 = DIRECTION ( 'NONE',  ( 0.0000000000000000000, -1.000000000000000000, 0.0000000000000000000 ) ) ;
#137 = CIRCLE ( 'NONE', #195, 14.69999999999999200 ) ;
#138 = ORIENTED_EDGE ( 'NONE', *, *, #105, .F. ) ;
#139 = FACE_OUTER_BOUND ( 'NONE', #85, .T. ) ;
#140 = CIRCLE ( 'NONE', #131, 1.000000000000000900 ) ;
#141 = DIRECTION ( 'NONE',  ( -0.0000000000000000000, 1.000000000000000000, -0.0000000000000000000 ) ) ;
#142 = PLANE ( 'NONE',  #180 ) ;
#143 = MECHANICAL_DESIGN_GEOMETRIC_PRESENTATION_REPRESENTATION (  '', ( #47 ), #222 ) ;
#144 = CIRCLE ( 'NONE', #249, 7.535898384862262500 ) ;
#145 = DIRECTION ( 'NONE',  ( 0.0000000000000000000, 0.0000000000000000000, -1.000000000000000000 ) ) ;
#146 = CARTESIAN_POINT ( 'NONE',  ( 0.0000000000000000000, 2.232673012021034500, 14.99999999999999300 ) ) ;
#147 = LINE ( 'NONE', #93, #176 ) ;
#148 = ORIENTED_EDGE ( 'NONE', *, *, #261, .T. ) ;
#149 = DIRECTION ( 'NONE',  ( 0.0000000000000000000, 0.0000000000000000000, -1.000000000000000000 ) ) ;
#150 = DIRECTION ( 'NONE',  ( 0.0000000000000000000, -1.000000000000000000, 0.0000000000000000000 ) ) ;
#151 = DIRECTION ( 'NONE',  ( 0.0000000000000000000, 0.0000000000000000000, -1.000000000000000000 ) ) ;
#152 = SURFACE_STYLE_USAGE ( .BOTH. , #282 ) ;
#153 = SURFACE_STYLE_USAGE ( .BOTH. , #283 ) ;
#154 = FACE_OUTER_BOUND ( 'NONE', #88, .T. ) ;
#155 = CYLINDRICAL_SURFACE ( 'NONE', #108, 14.99999999999999300 ) ;
#156 = AXIS2_PLACEMENT_3D ( 'NONE', #209, #70, #234 ) ;
#157 = EDGE_LOOP ( 'NONE', ( #138, #226, #68, #19 ) ) ;
#158 = UNCERTAINTY_MEASURE_WITH_UNIT (LENGTH_MEASURE( 1.000000000000000100E-005 ), #12, 'distance_accuracy_value', 'NONE');
#159 = AXIS2_PLACEMENT_3D ( 'NONE', #207, #69, #229 ) ;
#160 = DIRECTION ( 'NONE',  ( 0.0000000000000000000, 0.0000000000000000000, 1.000000000000000000 ) ) ;
#161 = EDGE_CURVE ( 'NONE', #37, #276, #271, .T. ) ;
#162 = CIRCLE ( 'NONE', #76, 1.000000000000000900 ) ;
#163 = EDGE_CURVE ( 'NONE', #7, #13, #144, .T. ) ;
#164 = PLANE ( 'NONE',  #159 ) ;
#165 = PRESENTATION_STYLE_ASSIGNMENT (( #152 ) ) ;
#166 = DIRECTION ( 'NONE',  ( -1.000000000000000000, -0.0000000000000000000, -0.0000000000000000000 ) ) ;
#167 = DIRECTION ( 'NONE',  ( 0.0000000000000000000, -1.000000000000000000, 0.0000000000000000000 ) ) ;
#168 =( NAMED_UNIT ( * ) PLANE_ANGLE_UNIT ( ) SI_UNIT ( $, .RADIAN. ) );
#169 = AXIS2_PLACEMENT_3D ( 'NONE', #265, #267, #102 ) ;
#170 = ORIENTED_EDGE ( 'NONE', *, *, #23, .T. ) ;
#171 = DIRECTION ( 'NONE',  ( 0.0000000000000000000, 0.0000000000000000000, 1.000000000000000000 ) ) ;
#172 = CIRCLE ( 'NONE', #135, 0.2999999999999999300 ) ;
#173 = ADVANCED_FACE ( 'NONE', ( #220 ), #262, .T. ) ;
#174 = ORIENTED_EDGE ( 'NONE', *, *, #161, .T. ) ;
#175 = AXIS2_PLACEMENT_3D ( 'NONE', #119, #278, #145 ) ;
#176 = VECTOR ( 'NONE', #275, 1000.000000000000000 ) ;
#177 = AXIS2_PLACEMENT_3D ( 'NONE', #46, #251, #186 ) ;
#178 = FACE_OUTER_BOUND ( 'NONE', #157, .T. ) ;
#179 = ORIENTED_EDGE ( 'NONE', *, *, #242, .T. ) ;
#180 = AXIS2_PLACEMENT_3D ( 'NONE', #15, #215, #171 ) ;
#181 = DIRECTION ( 'NONE',  ( 0.0000000000000000000, -1.000000000000000000, 0.0000000000000000000 ) ) ;
#182 = VECTOR ( 'NONE', #258, 1000.000000000000000 ) ;
#183 = DIRECTION ( 'NONE',  ( -0.0000000000000000000, 1.000000000000000000, -0.0000000000000000000 ) ) ;
#184 = ORIENTED_EDGE ( 'NONE', *, *, #163, .F. ) ;
#185 = CARTESIAN_POINT ( 'NONE',  ( 0.0000000000000000000, 55.25579619824175400, 0.0000000000000000000 ) ) ;
#186 = DIRECTION ( 'NONE',  ( 0.0000000000000000000, 0.0000000000000000000, -1.000000000000000000 ) ) ;
#187 = CARTESIAN_POINT ( 'NONE',  ( 1.836970198721028800E-015, 55.25579619824175400, -14.99999999999999300 ) ) ;
#188 =( NAMED_UNIT ( * ) PLANE_ANGLE_UNIT ( ) SI_UNIT ( $, .RADIAN. ) );
#189 = ORIENTED_EDGE ( 'NONE', *, *, #107, .F. ) ;
#190 =( NAMED_UNIT ( * ) PLANE_ANGLE_UNIT ( ) SI_UNIT ( $, .RADIAN. ) );
#191 = VECTOR ( 'NONE', #122, 1000.000000000000000 ) ;
#192 = ORIENTED_EDGE ( 'NONE', *, *, #101, .T. ) ;
#193 = ADVANCED_FACE ( 'NONE', ( #196 ), #78, .T. ) ;
#194 = CIRCLE ( 'NONE', #281, 0.2999999999999999300 ) ;
#195 = AXIS2_PLACEMENT_3D ( 'NONE', #232, #124, #293 ) ;
#196 = FACE_OUTER_BOUND ( 'NONE', #21, .T. ) ;
#197 = ORIENTED_EDGE ( 'NONE', *, *, #286, .F. ) ;
#198 = EDGE_LOOP ( 'NONE', ( #272, #184, #24, #110 ) ) ;
#199 = CARTESIAN_POINT ( 'NONE',  ( 0.0000000000000000000, 3.198598838310105400, 0.0000000000000000000 ) ) ;
#200 = ADVANCED_BREP_SHAPE_REPRESENTATION ( 'Hositrad_KF16B-GQ', ( #125, #274 ), #115 ) ;
#201 = EDGE_CURVE ( 'NONE', #37, #63, #252, .T. ) ;
#202 = PRODUCT_RELATED_PRODUCT_CATEGORY ( 'part', '', ( #247 ) ) ;
#203 = CONICAL_SURFACE ( 'NONE', #65, 7.535898384862262500, 1.308996938995746100 ) ;
#204 = COLOUR_RGB ( '',0.7921568627450980000, 0.8196078431372548800, 0.9333333333333333500 ) ;
#205 = ORIENTED_EDGE ( 'NONE', *, *, #201, .T. ) ;
#206 = DIRECTION ( 'NONE',  ( -0.0000000000000000000, 1.000000000000000000, -0.0000000000000000000 ) ) ;
#207 = CARTESIAN_POINT ( 'NONE',  ( 0.0000000000000000000, -9.184850993605144000E-016, 0.0000000000000000000 ) ) ;
#208 = CARTESIAN_POINT ( 'NONE',  ( 1.836970198721028800E-015, 2.232673012021034500, -14.99999999999999300 ) ) ;
#209 = CARTESIAN_POINT ( 'NONE',  ( 0.0000000000000000000, -9.215718466126787700E-016, 0.0000000000000000000 ) ) ;
#210 = CARTESIAN_POINT ( 'NONE',  ( 1.800230794746608300E-015, 0.3000000000000016500, 14.69999999999999200 ) ) ;
#211 = DIRECTION ( 'NONE',  ( -1.000000000000000000, -0.0000000000000000000, -0.0000000000000000000 ) ) ;
#212 = EDGE_LOOP ( 'NONE', ( #223, #41, #270, #64 ) ) ;
#213 = DIRECTION ( 'NONE',  ( 1.000000000000000000, 0.0000000000000000000, 0.0000000000000000000 ) ) ;
#214 = CARTESIAN_POINT ( 'NONE',  ( 0.0000000000000000000, 4.999999999999997300, -7.535898384862262500 ) ) ;
#215 = DIRECTION ( 'NONE',  ( -0.0000000000000000000, 1.000000000000000000, 0.0000000000000000000 ) ) ;
#216 = CIRCLE ( 'NONE', #294, 14.25881904510251100 ) ;
#217 = CARTESIAN_POINT ( 'NONE',  ( 0.0000000000000000000, 3.198598838310105400, 0.0000000000000000000 ) ) ;
#218 = ORIENTED_EDGE ( 'NONE', *, *, #248, .F. ) ;
#219 = AXIS2_PLACEMENT_3D ( 'NONE', #3, #181, #227 ) ;
#220 = FACE_OUTER_BOUND ( 'NONE', #250, .T. ) ;
#221 = ORIENTED_EDGE ( 'NONE', *, *, #114, .F. ) ;
#222 =( GEOMETRIC_REPRESENTATION_CONTEXT ( 3 ) GLOBAL_UNCERTAINTY_ASSIGNED_CONTEXT ( ( #158 ) ) GLOBAL_UNIT_ASSIGNED_CONTEXT ( ( #12, #168, #32 ) ) REPRESENTATION_CONTEXT ( 'NONE', 'WORKASPACE' ) );
#223 = ORIENTED_EDGE ( 'NONE', *, *, #161, .F. ) ;
#224 = ADVANCED_FACE ( 'NONE', ( #139 ), #164, .T. ) ;
#225 = AXIS2_PLACEMENT_3D ( 'NONE', #230, #123, #120 ) ;
#226 = ORIENTED_EDGE ( 'NONE', *, *, #107, .T. ) ;
#227 = DIRECTION ( 'NONE',  ( 0.0000000000000000000, 0.0000000000000000000, -1.000000000000000000 ) ) ;
#228 = SURFACE_STYLE_FILL_AREA ( #127 ) ;
#229 = DIRECTION ( 'NONE',  ( 0.0000000000000000000, -0.0000000000000000000, -1.000000000000000000 ) ) ;
#230 = CARTESIAN_POINT ( 'NONE',  ( 0.0000000000000000000, 4.999999999999997300, 0.0000000000000000000 ) ) ;
#231 =( NAMED_UNIT ( * ) SI_UNIT ( $, .STERADIAN. ) SOLID_ANGLE_UNIT ( ) );
#232 = CARTESIAN_POINT ( 'NONE',  ( 0.0000000000000000000, -9.215718466126787700E-016, 0.0000000000000000000 ) ) ;
#233 = ORIENTED_EDGE ( 'NONE', *, *, #53, .F. ) ;
#234 = DIRECTION ( 'NONE',  ( 0.0000000000000000000, 0.0000000000000000000, -1.000000000000000000 ) ) ;
#235 = DIRECTION ( 'NONE',  ( -1.224646799147353200E-016, 0.0000000000000000000, -1.000000000000000000 ) ) ;
#236 = DIRECTION ( 'NONE',  ( 0.0000000000000000000, 0.0000000000000000000, 1.000000000000000000 ) ) ;
#237 = AXIS2_PLACEMENT_3D ( 'NONE', #254, #279, #149 ) ;
#238 = APPLICATION_CONTEXT ( 'automotive_design' ) ;
#239 = ORIENTED_EDGE ( 'NONE', *, *, #9, .T. ) ;
#240 = CARTESIAN_POINT ( 'NONE',  ( 1.818600496733818800E-015, -9.215718466126787700E-016, 14.69999999999999200 ) ) ;
#241 = ORIENTED_EDGE ( 'NONE', *, *, #59, .T. ) ;
#242 = EDGE_CURVE ( 'NONE', #276, #253, #194, .T. ) ;
#243 = CARTESIAN_POINT ( 'NONE',  ( 1.746201710320610800E-015, 3.198598838310105400, 14.25881904510251100 ) ) ;
#244 = CARTESIAN_POINT ( 'NONE',  ( 1.334541546946369600E-015, 4.999999999999997300, 7.535898384862262500 ) ) ;
#245 = EDGE_LOOP ( 'NONE', ( #256, #192 ) ) ;
#246 = AXIS2_PLACEMENT_3D ( 'NONE', #199, #141, #160 ) ;
#247 = PRODUCT ( 'Hositrad_KF16B-GQ', 'Hositrad_KF16B-GQ', '', ( #77 ) ) ;
#248 = EDGE_CURVE ( 'NONE', #117, #253, #17, .T. ) ;
#249 = AXIS2_PLACEMENT_3D ( 'NONE', #42, #206, #67 ) ;
#250 = EDGE_LOOP ( 'NONE', ( #33, #113, #179, #218 ) ) ;
#251 = DIRECTION ( 'NONE',  ( 0.0000000000000000000, -1.000000000000000000, 0.0000000000000000000 ) ) ;
#252 = LINE ( 'NONE', #5, #191 ) ;
#253 = VERTEX_POINT ( 'NONE', #89 ) ;
#254 = CARTESIAN_POINT ( 'NONE',  ( 0.0000000000000000000, 2.232673012021034500, 0.0000000000000000000 ) ) ;
#255 = CARTESIAN_POINT ( 'NONE',  ( 0.0000000000000000000, 0.3000000000000016500, 0.0000000000000000000 ) ) ;
#256 = ORIENTED_EDGE ( 'NONE', *, *, #163, .T. ) ;
#257 = DIRECTION ( 'NONE',  ( 1.182917971378669300E-016, -0.2588190451025217900, 0.9659258262890679800 ) ) ;
#258 = DIRECTION ( 'NONE',  ( -0.0000000000000000000, 1.000000000000000000, -0.0000000000000000000 ) ) ;
#259 = FILL_AREA_STYLE_COLOUR ( '', #91 ) ;
#260 =( LENGTH_UNIT ( ) NAMED_UNIT ( * ) SI_UNIT ( .MILLI., .METRE. ) );
#261 = EDGE_CURVE ( 'NONE', #13, #80, #56, .T. ) ;
#262 = TOROIDAL_SURFACE ( 'NONE', #219, 14.69999999999999200, 0.2999999999999999900 ) ;
#263 = DIRECTION ( 'NONE',  ( 0.0000000000000000000, 0.0000000000000000000, 1.000000000000000000 ) ) ;
#264 = CIRCLE ( 'NONE', #128, 14.99999999999999300 ) ;
#265 = CARTESIAN_POINT ( 'NONE',  ( 0.0000000000000000000, 0.3000000000000016500, 0.0000000000000000000 ) ) ;
#266 = ADVANCED_FACE ( 'NONE', ( #66 ), #111, .T. ) ;
#267 = DIRECTION ( 'NONE',  ( -0.0000000000000000000, 1.000000000000000000, -0.0000000000000000000 ) ) ;
#268 = EDGE_CURVE ( 'NONE', #37, #117, #172, .T. ) ;
#269 = DIRECTION ( 'NONE',  ( 0.0000000000000000000, 0.0000000000000000000, -1.000000000000000000 ) ) ;
#270 = ORIENTED_EDGE ( 'NONE', *, *, #54, .F. ) ;
#271 = CIRCLE ( 'NONE', #175, 14.99999999999999300 ) ;
#272 = ORIENTED_EDGE ( 'NONE', *, *, #261, .F. ) ;
#273 = DIRECTION ( 'NONE',  ( 1.000000000000000000, 0.0000000000000000000, -1.224646799147353200E-016 ) ) ;
#274 = AXIS2_PLACEMENT_3D ( 'NONE', #280, #50, #213 ) ;
#275 = DIRECTION ( 'NONE',  ( 0.0000000000000000000, -0.2588190451025217900, -0.9659258262890679800 ) ) ;
#276 = VERTEX_POINT ( 'NONE', #10 ) ;
#277 = CONICAL_SURFACE ( 'NONE', #177, 7.535898384862262500, 1.308996938995746100 ) ;
#278 = DIRECTION ( 'NONE',  ( -0.0000000000000000000, 1.000000000000000000, -0.0000000000000000000 ) ) ;
#279 = DIRECTION ( 'NONE',  ( 0.0000000000000000000, -1.000000000000000000, 0.0000000000000000000 ) ) ;
#280 = CARTESIAN_POINT ( 'NONE',  ( 0.0000000000000000000, 0.0000000000000000000, 0.0000000000000000000 ) ) ;
#281 = AXIS2_PLACEMENT_3D ( 'NONE', #8, #166, #28 ) ;
#282 = SURFACE_SIDE_STYLE ('',( #228 ) ) ;
#283 = SURFACE_SIDE_STYLE ('',( #84 ) ) ;
#284 = CIRCLE ( 'NONE', #169, 14.99999999999999300 ) ;
#285 = CLOSED_SHELL ( 'NONE', ( #81, #287, #22, #266, #224, #116, #104, #57, #193, #173 ) ) ;
#286 = EDGE_CURVE ( 'NONE', #276, #61, #44, .T. ) ;
#287 = ADVANCED_FACE ( 'NONE', ( #178 ), #134, .T. ) ;
#288 = PRODUCT_DEFINITION ( 'UNKNOWN', '', #34, #58 ) ;
#289 = TOROIDAL_SURFACE ( 'NONE', #38, 14.69999999999999200, 0.2999999999999999900 ) ;
#290 = EDGE_LOOP ( 'NONE', ( #197, #241, #205, #239 ) ) ;
#291 = VECTOR ( 'NONE', #257, 1000.000000000000000 ) ;
#292 = DIRECTION ( 'NONE',  ( -1.224646799147351500E-016, 0.0000000000000000000, -1.000000000000000000 ) ) ;
#293 = DIRECTION ( 'NONE',  ( 0.0000000000000000000, 0.0000000000000000000, -1.000000000000000000 ) ) ;
#294 = AXIS2_PLACEMENT_3D ( 'NONE', #217, #100, #263 ) ;
ENDSEC;
END-ISO-10303-21;
