ISO-10303-21;
HEADER;
FILE_DESCRIPTION (( 'STEP AP214' ),
    '1' );
FILE_NAME ('Hositrad_KF25B-GQ.STEP',
    '2017-03-23T10:34:42',
    ( 'Gebruiker' ),
    ( '' ),
    'SwSTEP 2.0',
    'SolidWorks 2017',
    '' );
FILE_SCHEMA (( 'AUTOMOTIVE_DESIGN' ));
ENDSEC;

DATA;
#1 = ADVANCED_FACE ( 'NONE', ( #33 ), #201, .T. ) ;
#2 = CARTESIAN_POINT ( 'NONE',  ( 0.0000000000000000000, 3.198598838310104900, 0.0000000000000000000 ) ) ;
#3 = DIRECTION ( 'NONE',  ( 0.0000000000000000000, 0.0000000000000000000, 1.000000000000000000 ) ) ;
#4 = FACE_OUTER_BOUND ( 'NONE', #175, .T. ) ;
#5 = CARTESIAN_POINT ( 'NONE',  ( 0.0000000000000000000, 55.25579619824175400, 0.0000000000000000000 ) ) ;
#6 = VERTEX_POINT ( 'NONE', #220 ) ;
#7 = ORIENTED_EDGE ( 'NONE', *, *, #242, .F. ) ;
#8 = APPLICATION_PROTOCOL_DEFINITION ( 'draft international standard', 'automotive_design', 1998, #10 ) ;
#9 = MANIFOLD_SOLID_BREP ( 'Fillet2', #42 ) ;
#10 = APPLICATION_CONTEXT ( 'automotive_design' ) ;
#11 = AXIS2_PLACEMENT_3D ( 'NONE', #280, #231, #208 ) ;
#12 = AXIS2_PLACEMENT_3D ( 'NONE', #119, #118, #117 ) ;
#13 = CIRCLE ( 'NONE', #210, 11.78948822334849400 ) ;
#14 = ORIENTED_EDGE ( 'NONE', *, *, #211, .F. ) ;
#15 = COLOUR_RGB ( '',0.7921568627450980000, 0.8196078431372548800, 0.9333333333333333500 ) ;
#16 = ORIENTED_EDGE ( 'NONE', *, *, #160, .T. ) ;
#17 = EDGE_CURVE ( 'NONE', #101, #195, #105, .T. ) ;
#18 = CARTESIAN_POINT ( 'NONE',  ( -11.78948822334849400, 5.199999999999997500, 0.0000000000000000000 ) ) ;
#19 = ORIENTED_EDGE ( 'NONE', *, *, #197, .F. ) ;
#20 = ORIENTED_EDGE ( 'NONE', *, *, #294, .F. ) ;
#21 = ADVANCED_FACE ( 'NONE', ( #63 ), #282, .T. ) ;
#22 = PLANE ( 'NONE',  #243 ) ;
#23 = COLOUR_RGB ( '',0.7921568627450980000, 0.8196078431372548800, 0.9333333333333333500 ) ;
#24 = ADVANCED_FACE ( 'NONE', ( #162 ), #74, .T. ) ;
#25 = DIRECTION ( 'NONE',  ( 0.0000000000000000000, 0.0000000000000000000, -1.000000000000000000 ) ) ;
#26 = ADVANCED_FACE ( 'NONE', ( #218 ), #291, .T. ) ;
#27 = DIRECTION ( 'NONE',  ( -0.0000000000000000000, 1.000000000000000000, -0.0000000000000000000 ) ) ;
#28 = PRODUCT_CONTEXT ( 'NONE', #86, 'mechanical' ) ;
#29 = ADVANCED_FACE ( 'NONE', ( #168 ), #22, .T. ) ;
#30 = DIRECTION ( 'NONE',  ( 0.0000000000000000000, 0.0000000000000000000, -1.000000000000000000 ) ) ;
#31 = AXIS2_PLACEMENT_3D ( 'NONE', #89, #70, #68 ) ;
#32 = ORIENTED_EDGE ( 'NONE', *, *, #242, .T. ) ;
#33 = FACE_OUTER_BOUND ( 'NONE', #87, .T. ) ;
#34 = DIRECTION ( 'NONE',  ( 1.000000000000000000, 0.0000000000000000000, 0.0000000000000000000 ) ) ;
#35 = DIRECTION ( 'NONE',  ( 0.0000000000000000000, 0.0000000000000000000, 1.000000000000000000 ) ) ;
#36 = DIRECTION ( 'NONE',  ( -0.0000000000000000000, 1.000000000000000000, -0.0000000000000000000 ) ) ;
#37 = DIRECTION ( 'NONE',  ( 0.0000000000000000000, 0.0000000000000000000, 1.000000000000000000 ) ) ;
#38 = CIRCLE ( 'NONE', #90, 0.3000000000000016500 ) ;
#39 = CIRCLE ( 'NONE', #167, 19.69999999999999200 ) ;
#40 = ORIENTED_EDGE ( 'NONE', *, *, #144, .T. ) ;
#41 = FACE_OUTER_BOUND ( 'NONE', #108, .T. ) ;
#42 = CLOSED_SHELL ( 'NONE', ( #26, #139, #246, #221, #24, #21, #1, #29, #269, #47 ) ) ;
#43 = ORIENTED_EDGE ( 'NONE', *, *, #174, .F. ) ;
#44 = CARTESIAN_POINT ( 'NONE',  ( 0.0000000000000000000, 0.3000000000000016500, 0.0000000000000000000 ) ) ;
#45 = AXIS2_PLACEMENT_3D ( 'NONE', #64, #54, #53 ) ;
#46 = DIRECTION ( 'NONE',  ( 0.0000000000000000000, -0.0000000000000000000, -1.000000000000000000 ) ) ;
#47 = ADVANCED_FACE ( 'NONE', ( #55 ), #176, .T. ) ;
#48 = STYLED_ITEM ( 'NONE', ( #145 ), #171 ) ;
#49 = LINE ( 'NONE', #278, #234 ) ;
#50 = DIRECTION ( 'NONE',  ( -0.0000000000000000000, 1.000000000000000000, -0.0000000000000000000 ) ) ;
#51 = CARTESIAN_POINT ( 'NONE',  ( 0.0000000000000000000, 2.232673012021034500, -18.99999999999999300 ) ) ;
#52 = ORIENTED_EDGE ( 'NONE', *, *, #229, .T. ) ;
#53 = DIRECTION ( 'NONE',  ( 0.0000000000000000000, 0.0000000000000000000, -1.000000000000000000 ) ) ;
#54 = DIRECTION ( 'NONE',  ( 0.0000000000000000000, -1.000000000000000000, 0.0000000000000000000 ) ) ;
#55 = FACE_OUTER_BOUND ( 'NONE', #140, .T. ) ;
#56 = DIRECTION ( 'NONE',  ( 0.0000000000000000000, 0.0000000000000000000, -1.000000000000000000 ) ) ;
#57 = ORIENTED_EDGE ( 'NONE', *, *, #197, .T. ) ;
#58 =( NAMED_UNIT ( * ) SI_UNIT ( $, .STERADIAN. ) SOLID_ANGLE_UNIT ( ) );
#59 = AXIS2_PLACEMENT_3D ( 'NONE', #44, #27, #25 ) ;
#60 = VECTOR ( 'NONE', #224, 1000.000000000000000 ) ;
#61 = PRESENTATION_LAYER_ASSIGNMENT (  '', '', ( #48 ) ) ;
#62 =( NAMED_UNIT ( * ) PLANE_ANGLE_UNIT ( ) SI_UNIT ( $, .RADIAN. ) );
#63 = FACE_OUTER_BOUND ( 'NONE', #113, .T. ) ;
#64 = CARTESIAN_POINT ( 'NONE',  ( 0.0000000000000000000, -1.246832498358330100E-015, 0.0000000000000000000 ) ) ;
#65 = CIRCLE ( 'NONE', #12, 19.99999999999999300 ) ;
#66 = CARTESIAN_POINT ( 'NONE',  ( 2.449293598294705700E-015, 0.3000000000000016500, -19.99999999999999300 ) ) ;
#67 = VERTEX_POINT ( 'NONE', #252 ) ;
#68 = DIRECTION ( 'NONE',  ( 0.0000000000000000000, 0.0000000000000000000, -1.000000000000000000 ) ) ;
#69 =( LENGTH_UNIT ( ) NAMED_UNIT ( * ) SI_UNIT ( .MILLI., .METRE. ) );
#70 = DIRECTION ( 'NONE',  ( 0.0000000000000000000, -1.000000000000000000, 0.0000000000000000000 ) ) ;
#71 = DIRECTION ( 'NONE',  ( 0.0000000000000000000, -1.000000000000000000, 0.0000000000000000000 ) ) ;
#72 = AXIS2_PLACEMENT_3D ( 'NONE', #2, #279, #188 ) ;
#73 = TOROIDAL_SURFACE ( 'NONE', #180, 18.99999999999999300, 1.000000000000000000 ) ;
#74 = PLANE ( 'NONE',  #198 ) ;
#75 = ORIENTED_EDGE ( 'NONE', *, *, #211, .T. ) ;
#76 = MECHANICAL_DESIGN_GEOMETRIC_PRESENTATION_REPRESENTATION (  '', ( #48 ), #92 ) ;
#77 = ORIENTED_EDGE ( 'NONE', *, *, #263, .F. ) ;
#78 = SURFACE_STYLE_USAGE ( .BOTH. , #79 ) ;
#79 = SURFACE_SIDE_STYLE ('',( #217 ) ) ;
#80 = ORIENTED_EDGE ( 'NONE', *, *, #111, .F. ) ;
#81 = STYLED_ITEM ( 'NONE', ( #191 ), #9 ) ;
#82 = CARTESIAN_POINT ( 'NONE',  ( 0.0000000000000000000, 5.199999999999996600, 0.0000000000000000000 ) ) ;
#83 = ORIENTED_EDGE ( 'NONE', *, *, #96, .F. ) ;
#84 = SURFACE_STYLE_FILL_AREA ( #206 ) ;
#85 = FILL_AREA_STYLE ('',( #155 ) ) ;
#86 = APPLICATION_CONTEXT ( 'automotive_design' ) ;
#87 = EDGE_LOOP ( 'NONE', ( #77, #249, #40, #75 ) ) ;
#88 = LINE ( 'NONE', #250, #100 ) ;
#89 = CARTESIAN_POINT ( 'NONE',  ( 0.0000000000000000000, 2.232673012021034500, 0.0000000000000000000 ) ) ;
#90 = AXIS2_PLACEMENT_3D ( 'NONE', #281, #277, #276 ) ;
#91 = VERTEX_POINT ( 'NONE', #253 ) ;
#92 =( GEOMETRIC_REPRESENTATION_CONTEXT ( 3 ) GLOBAL_UNCERTAINTY_ASSIGNED_CONTEXT ( ( #95 ) ) GLOBAL_UNIT_ASSIGNED_CONTEXT ( ( #69, #62, #58 ) ) REPRESENTATION_CONTEXT ( 'NONE', 'WORKASPACE' ) );
#93 = CARTESIAN_POINT ( 'NONE',  ( 0.0000000000000000000, 0.3000000000000016500, 19.99999999999999300 ) ) ;
#94 = ORIENTED_EDGE ( 'NONE', *, *, #130, .F. ) ;
#95 = UNCERTAINTY_MEASURE_WITH_UNIT (LENGTH_MEASURE( 1.000000000000000100E-005 ), #69, 'distance_accuracy_value', 'NONE');
#96 = EDGE_CURVE ( 'NONE', #200, #91, #286, .T. ) ;
#97 = CIRCLE ( 'NONE', #59, 19.99999999999999300 ) ;
#98 = CARTESIAN_POINT ( 'NONE',  ( 2.449293598294705700E-015, 2.232673012021034500, -19.99999999999999300 ) ) ;
#99 = PRESENTATION_LAYER_ASSIGNMENT (  '', '', ( #81 ) ) ;
#100 = VECTOR ( 'NONE', #233, 1000.000000000000100 ) ;
#101 = VERTEX_POINT ( 'NONE', #270 ) ;
#102 = FILL_AREA_STYLE_COLOUR ( '', #15 ) ;
#103 = PRODUCT_DEFINITION_SHAPE ( 'NONE', 'NONE',  #158 ) ;
#104 = APPLICATION_PROTOCOL_DEFINITION ( 'draft international standard', 'automotive_design', 1998, #86 ) ;
#105 = CIRCLE ( 'NONE', #148, 1.000000000000000900 ) ;
#106 = CIRCLE ( 'NONE', #109, 11.78948822334849400 ) ;
#107 = ORIENTED_EDGE ( 'NONE', *, *, #111, .T. ) ;
#108 = EDGE_LOOP ( 'NONE', ( #20, #230, #141, #166 ) ) ;
#109 = AXIS2_PLACEMENT_3D ( 'NONE', #82, #36, #35 ) ;
#110 =( NAMED_UNIT ( * ) SI_UNIT ( $, .STERADIAN. ) SOLID_ANGLE_UNIT ( ) );
#111 = EDGE_CURVE ( 'NONE', #209, #195, #49, .T. ) ;
#112 = MECHANICAL_DESIGN_GEOMETRIC_PRESENTATION_REPRESENTATION (  '', ( #81 ), #131 ) ;
#113 = EDGE_LOOP ( 'NONE', ( #80, #57, #196, #154 ) ) ;
#114 = DIRECTION ( 'NONE',  ( 0.0000000000000000000, 0.0000000000000000000, 1.000000000000000000 ) ) ;
#115 = TOROIDAL_SURFACE ( 'NONE', #290, 18.99999999999999300, 1.000000000000000000 ) ;
#116 = DIRECTION ( 'NONE',  ( -1.000000000000000000, -0.0000000000000000000, -0.0000000000000000000 ) ) ;
#117 = DIRECTION ( 'NONE',  ( 0.0000000000000000000, 0.0000000000000000000, -1.000000000000000000 ) ) ;
#118 = DIRECTION ( 'NONE',  ( -0.0000000000000000000, 1.000000000000000000, -0.0000000000000000000 ) ) ;
#119 = CARTESIAN_POINT ( 'NONE',  ( 0.0000000000000000000, 0.3000000000000016500, 0.0000000000000000000 ) ) ;
#120 =( NAMED_UNIT ( * ) PLANE_ANGLE_UNIT ( ) SI_UNIT ( $, .RADIAN. ) );
#121 = CARTESIAN_POINT ( 'NONE',  ( 2.358525109894288100E-015, 3.198598838310104900, 19.25881904510251600 ) ) ;
#122 = CARTESIAN_POINT ( 'NONE',  ( 0.0000000000000000000, 5.199999999999996600, 0.0000000000000000000 ) ) ;
#123 = SURFACE_STYLE_USAGE ( .BOTH. , #192 ) ;
#124 = AXIS2_PLACEMENT_3D ( 'NONE', #5, #50, #3 ) ;
#125 = DIRECTION ( 'NONE',  ( 0.0000000000000000000, -1.000000000000000000, 0.0000000000000000000 ) ) ;
#126 =( LENGTH_UNIT ( ) NAMED_UNIT ( * ) SI_UNIT ( .MILLI., .METRE. ) );
#127 = DIRECTION ( 'NONE',  ( 0.0000000000000000000, 0.0000000000000000000, 1.000000000000000000 ) ) ;
#128 = DIRECTION ( 'NONE',  ( -0.0000000000000000000, 1.000000000000000000, -0.0000000000000000000 ) ) ;
#129 = CARTESIAN_POINT ( 'NONE',  ( 0.0000000000000000000, 5.199999999999996600, 0.0000000000000000000 ) ) ;
#130 = EDGE_CURVE ( 'NONE', #200, #262, #132, .T. ) ;
#131 =( GEOMETRIC_REPRESENTATION_CONTEXT ( 3 ) GLOBAL_UNCERTAINTY_ASSIGNED_CONTEXT ( ( #216 ) ) GLOBAL_UNIT_ASSIGNED_CONTEXT ( ( #205, #247, #150 ) ) REPRESENTATION_CONTEXT ( 'NONE', 'WORKASPACE' ) );
#132 = LINE ( 'NONE', #227, #60 ) ;
#133 = DIRECTION ( 'NONE',  ( 0.0000000000000000000, 0.0000000000000000000, -1.000000000000000000 ) ) ;
#134 = ORIENTED_EDGE ( 'NONE', *, *, #288, .F. ) ;
#135 = ORIENTED_EDGE ( 'NONE', *, *, #272, .F. ) ;
#136 = DIRECTION ( 'NONE',  ( -1.224646799147353500E-016, 0.0000000000000000000, -1.000000000000000000 ) ) ;
#137 = DIRECTION ( 'NONE',  ( -0.0000000000000000000, 1.000000000000000000, -0.0000000000000000000 ) ) ;
#138 = AXIS2_PLACEMENT_3D ( 'NONE', #122, #125, #56 ) ;
#139 = ADVANCED_FACE ( 'NONE', ( #4 ), #115, .T. ) ;
#140 = EDGE_LOOP ( 'NONE', ( #83, #19, #32, #254 ) ) ;
#141 = ORIENTED_EDGE ( 'NONE', *, *, #259, .T. ) ;
#142 = CARTESIAN_POINT ( 'NONE',  ( 0.0000000000000000000, -1.224646799147352900E-015, 0.0000000000000000000 ) ) ;
#143 = AXIS2_PLACEMENT_3D ( 'NONE', #164, #37, #34 ) ;
#144 = EDGE_CURVE ( 'NONE', #151, #101, #223, .T. ) ;
#145 = PRESENTATION_STYLE_ASSIGNMENT (( #78 ) ) ;
#146 = DIRECTION ( 'NONE',  ( 1.000000000000000000, 0.0000000000000000000, -1.224646799147353200E-016 ) ) ;
#147 = EDGE_CURVE ( 'NONE', #177, #262, #239, .T. ) ;
#148 = AXIS2_PLACEMENT_3D ( 'NONE', #51, #116, #184 ) ;
#149 = CARTESIAN_POINT ( 'NONE',  ( 2.326828918379970200E-015, 2.232673012021034500, 18.99999999999999300 ) ) ;
#150 =( NAMED_UNIT ( * ) SI_UNIT ( $, .STERADIAN. ) SOLID_ANGLE_UNIT ( ) );
#151 = VERTEX_POINT ( 'NONE', #163 ) ;
#152 = DIRECTION ( 'NONE',  ( 0.0000000000000000000, -1.000000000000000000, 0.0000000000000000000 ) ) ;
#153 = CARTESIAN_POINT ( 'NONE',  ( 0.0000000000000000000, 2.232673012021034500, 0.0000000000000000000 ) ) ;
#154 = ORIENTED_EDGE ( 'NONE', *, *, #288, .T. ) ;
#155 = FILL_AREA_STYLE_COLOUR ( '', #23 ) ;
#156 = ORIENTED_EDGE ( 'NONE', *, *, #17, .F. ) ;
#157 = AXIS2_PLACEMENT_3D ( 'NONE', #241, #237, #236 ) ;
#158 = PRODUCT_DEFINITION ( 'UNKNOWN', '', #169, #238 ) ;
#159 = CIRCLE ( 'NONE', #72, 19.25881904510252000 ) ;
#160 = EDGE_CURVE ( 'NONE', #200, #209, #65, .T. ) ;
#161 = ORIENTED_EDGE ( 'NONE', *, *, #294, .T. ) ;
#162 = FACE_OUTER_BOUND ( 'NONE', #183, .T. ) ;
#163 = CARTESIAN_POINT ( 'NONE',  ( 0.0000000000000000000, 5.199999999999996600, -11.78948822334849400 ) ) ;
#164 = CARTESIAN_POINT ( 'NONE',  ( 0.0000000000000000000, 0.0000000000000000000, 0.0000000000000000000 ) ) ;
#165 = EDGE_LOOP ( 'NONE', ( #16, #107, #265, #94 ) ) ;
#166 = ORIENTED_EDGE ( 'NONE', *, *, #144, .F. ) ;
#167 = AXIS2_PLACEMENT_3D ( 'NONE', #173, #172, #170 ) ;
#168 = FACE_OUTER_BOUND ( 'NONE', #257, .T. ) ;
#169 = PRODUCT_DEFINITION_FORMATION_WITH_SPECIFIED_SOURCE ( 'ANY', '', #258, .NOT_KNOWN. ) ;
#170 = DIRECTION ( 'NONE',  ( 0.0000000000000000000, 0.0000000000000000000, -1.000000000000000000 ) ) ;
#171 = ADVANCED_BREP_SHAPE_REPRESENTATION ( 'Hositrad_KF25B-GQ', ( #9, #143 ), #222 ) ;
#172 = DIRECTION ( 'NONE',  ( 0.0000000000000000000, -1.000000000000000000, 0.0000000000000000000 ) ) ;
#173 = CARTESIAN_POINT ( 'NONE',  ( 0.0000000000000000000, -1.246832498358330100E-015, 0.0000000000000000000 ) ) ;
#174 = EDGE_CURVE ( 'NONE', #195, #262, #266, .T. ) ;
#175 = EDGE_LOOP ( 'NONE', ( #285, #240, #43, #156 ) ) ;
#176 = TOROIDAL_SURFACE ( 'NONE', #260, 19.69999999999999200, 0.2999999999999999900 ) ;
#177 = VERTEX_POINT ( 'NONE', #121 ) ;
#178 = SHAPE_DEFINITION_REPRESENTATION ( #103, #171 ) ;
#179 = VECTOR ( 'NONE', #251, 1000.000000000000100 ) ;
#180 = AXIS2_PLACEMENT_3D ( 'NONE', #215, #193, #214 ) ;
#181 = ORIENTED_EDGE ( 'NONE', *, *, #147, .F. ) ;
#182 = PRODUCT_RELATED_PRODUCT_CATEGORY ( 'part', '', ( #258 ) ) ;
#183 = EDGE_LOOP ( 'NONE', ( #287, #226 ) ) ;
#184 = DIRECTION ( 'NONE',  ( 0.0000000000000000000, 0.0000000000000000000, 1.000000000000000000 ) ) ;
#185 = CARTESIAN_POINT ( 'NONE',  ( 0.0000000000000000000, 5.199999999999996600, -11.78948822334849400 ) ) ;
#186 = EDGE_CURVE ( 'NONE', #91, #67, #284, .T. ) ;
#187 = AXIS2_PLACEMENT_3D ( 'NONE', #256, #137, #114 ) ;
#188 = DIRECTION ( 'NONE',  ( 0.0000000000000000000, 0.0000000000000000000, 1.000000000000000000 ) ) ;
#189 = DIRECTION ( 'NONE',  ( 0.0000000000000000000, 0.0000000000000000000, -1.000000000000000000 ) ) ;
#190 = ORIENTED_EDGE ( 'NONE', *, *, #17, .T. ) ;
#191 = PRESENTATION_STYLE_ASSIGNMENT (( #123 ) ) ;
#192 = SURFACE_SIDE_STYLE ('',( #84 ) ) ;
#193 = DIRECTION ( 'NONE',  ( 0.0000000000000000000, -1.000000000000000000, 0.0000000000000000000 ) ) ;
#194 = AXIS2_PLACEMENT_3D ( 'NONE', #153, #152, #133 ) ;
#195 = VERTEX_POINT ( 'NONE', #98 ) ;
#196 = ORIENTED_EDGE ( 'NONE', *, *, #130, .T. ) ;
#197 = EDGE_CURVE ( 'NONE', #209, #200, #97, .T. ) ;
#198 = AXIS2_PLACEMENT_3D ( 'NONE', #142, #273, #46 ) ;
#199 = CONICAL_SURFACE ( 'NONE', #138, 11.78948822334849400, 1.308996938995746300 ) ;
#200 = VERTEX_POINT ( 'NONE', #93 ) ;
#201 = CONICAL_SURFACE ( 'NONE', #11, 11.78948822334849400, 1.308996938995746300 ) ;
#202 = CARTESIAN_POINT ( 'NONE',  ( 0.0000000000000000000, 0.3000000000000016500, 0.0000000000000000000 ) ) ;
#203 = EDGE_LOOP ( 'NONE', ( #181, #14, #190, #134 ) ) ;
#204 = DIRECTION ( 'NONE',  ( 0.0000000000000000000, -1.000000000000000000, 0.0000000000000000000 ) ) ;
#205 =( LENGTH_UNIT ( ) NAMED_UNIT ( * ) SI_UNIT ( .MILLI., .METRE. ) );
#206 = FILL_AREA_STYLE ('',( #102 ) ) ;
#207 = CIRCLE ( 'NONE', #157, 19.25881904510252000 ) ;
#208 = DIRECTION ( 'NONE',  ( 0.0000000000000000000, 0.0000000000000000000, -1.000000000000000000 ) ) ;
#209 = VERTEX_POINT ( 'NONE', #66 ) ;
#210 = AXIS2_PLACEMENT_3D ( 'NONE', #129, #128, #127 ) ;
#211 = EDGE_CURVE ( 'NONE', #101, #177, #159, .T. ) ;
#212 = AXIS2_PLACEMENT_3D ( 'NONE', #202, #71, #30 ) ;
#213 = ORIENTED_EDGE ( 'NONE', *, *, #160, .F. ) ;
#214 = DIRECTION ( 'NONE',  ( 0.0000000000000000000, 0.0000000000000000000, -1.000000000000000000 ) ) ;
#215 = CARTESIAN_POINT ( 'NONE',  ( 0.0000000000000000000, 2.232673012021034500, 0.0000000000000000000 ) ) ;
#216 = UNCERTAINTY_MEASURE_WITH_UNIT (LENGTH_MEASURE( 1.000000000000000100E-005 ), #205, 'distance_accuracy_value', 'NONE');
#217 = SURFACE_STYLE_FILL_AREA ( #85 ) ;
#218 = FACE_OUTER_BOUND ( 'NONE', #255, .T. ) ;
#219 = CYLINDRICAL_SURFACE ( 'NONE', #124, 19.99999999999999300 ) ;
#220 = CARTESIAN_POINT ( 'NONE',  ( 1.901160505762601500E-015, 5.199999999999996600, 11.78948822334849400 ) ) ;
#221 = ADVANCED_FACE ( 'NONE', ( #271 ), #219, .T. ) ;
#222 =( GEOMETRIC_REPRESENTATION_CONTEXT ( 3 ) GLOBAL_UNCERTAINTY_ASSIGNED_CONTEXT ( ( #283 ) ) GLOBAL_UNIT_ASSIGNED_CONTEXT ( ( #126, #120, #110 ) ) REPRESENTATION_CONTEXT ( 'NONE', 'WORKASPACE' ) );
#223 = LINE ( 'NONE', #185, #179 ) ;
#224 = DIRECTION ( 'NONE',  ( -0.0000000000000000000, 1.000000000000000000, -0.0000000000000000000 ) ) ;
#225 = DIRECTION ( 'NONE',  ( -0.0000000000000000000, 1.000000000000000000, -0.0000000000000000000 ) ) ;
#226 = ORIENTED_EDGE ( 'NONE', *, *, #186, .T. ) ;
#227 = CARTESIAN_POINT ( 'NONE',  ( 0.0000000000000000000, 55.25579619824175400, 19.99999999999999300 ) ) ;
#228 = DIRECTION ( 'NONE',  ( -1.224646799147346300E-016, 0.0000000000000000000, -1.000000000000000000 ) ) ;
#229 = EDGE_CURVE ( 'NONE', #151, #6, #106, .T. ) ;
#230 = ORIENTED_EDGE ( 'NONE', *, *, #263, .T. ) ;
#231 = DIRECTION ( 'NONE',  ( 0.0000000000000000000, -1.000000000000000000, 0.0000000000000000000 ) ) ;
#232 = AXIS2_PLACEMENT_3D ( 'NONE', #244, #235, #228 ) ;
#233 = DIRECTION ( 'NONE',  ( 1.182917971378669300E-016, -0.2588190451025215200, 0.9659258262890679800 ) ) ;
#234 = VECTOR ( 'NONE', #225, 1000.000000000000000 ) ;
#235 = DIRECTION ( 'NONE',  ( 1.000000000000000000, 0.0000000000000000000, -1.224646799147353200E-016 ) ) ;
#236 = DIRECTION ( 'NONE',  ( 0.0000000000000000000, 0.0000000000000000000, 1.000000000000000000 ) ) ;
#237 = DIRECTION ( 'NONE',  ( -0.0000000000000000000, 1.000000000000000000, -0.0000000000000000000 ) ) ;
#238 = PRODUCT_DEFINITION_CONTEXT ( 'detailed design', #10, 'design' ) ;
#239 = CIRCLE ( 'NONE', #274, 1.000000000000000900 ) ;
#240 = ORIENTED_EDGE ( 'NONE', *, *, #147, .T. ) ;
#241 = CARTESIAN_POINT ( 'NONE',  ( 0.0000000000000000000, 3.198598838310104900, 0.0000000000000000000 ) ) ;
#242 = EDGE_CURVE ( 'NONE', #209, #67, #38, .T. ) ;
#243 = AXIS2_PLACEMENT_3D ( 'NONE', #18, #293, #292 ) ;
#244 = CARTESIAN_POINT ( 'NONE',  ( 2.412554194320284500E-015, 0.3000000000000016500, 19.69999999999999200 ) ) ;
#245 = ORIENTED_EDGE ( 'NONE', *, *, #96, .T. ) ;
#246 = ADVANCED_FACE ( 'NONE', ( #41 ), #199, .T. ) ;
#247 =( NAMED_UNIT ( * ) PLANE_ANGLE_UNIT ( ) SI_UNIT ( $, .RADIAN. ) );
#248 = CARTESIAN_POINT ( 'NONE',  ( 0.0000000000000000000, 2.232673012021034500, 0.0000000000000000000 ) ) ;
#249 = ORIENTED_EDGE ( 'NONE', *, *, #229, .F. ) ;
#250 = CARTESIAN_POINT ( 'NONE',  ( 1.443795901630914800E-015, 5.199999999999996600, 11.78948822334849400 ) ) ;
#251 = DIRECTION ( 'NONE',  ( 0.0000000000000000000, -0.2588190451025215200, -0.9659258262890679800 ) ) ;
#252 = CARTESIAN_POINT ( 'NONE',  ( 0.0000000000000000000, -1.246832498358330100E-015, -19.69999999999999200 ) ) ;
#253 = CARTESIAN_POINT ( 'NONE',  ( 2.430923896307495300E-015, -1.246832498358330100E-015, 19.69999999999999200 ) ) ;
#254 = ORIENTED_EDGE ( 'NONE', *, *, #186, .F. ) ;
#255 = EDGE_LOOP ( 'NONE', ( #213, #245, #135, #7 ) ) ;
#256 = CARTESIAN_POINT ( 'NONE',  ( 0.0000000000000000000, 55.25579619824175400, 0.0000000000000000000 ) ) ;
#257 = EDGE_LOOP ( 'NONE', ( #52, #161 ) ) ;
#258 = PRODUCT ( 'Hositrad_KF25B-GQ', 'Hositrad_KF25B-GQ', '', ( #28 ) ) ;
#259 = EDGE_CURVE ( 'NONE', #177, #101, #207, .T. ) ;
#260 = AXIS2_PLACEMENT_3D ( 'NONE', #289, #268, #275 ) ;
#261 = FACE_OUTER_BOUND ( 'NONE', #203, .T. ) ;
#262 = VERTEX_POINT ( 'NONE', #264 ) ;
#263 = EDGE_CURVE ( 'NONE', #6, #177, #88, .T. ) ;
#264 = CARTESIAN_POINT ( 'NONE',  ( 0.0000000000000000000, 2.232673012021034500, 19.99999999999999300 ) ) ;
#265 = ORIENTED_EDGE ( 'NONE', *, *, #174, .T. ) ;
#266 = CIRCLE ( 'NONE', #31, 19.99999999999999300 ) ;
#267 = CIRCLE ( 'NONE', #194, 19.99999999999999300 ) ;
#268 = DIRECTION ( 'NONE',  ( 0.0000000000000000000, -1.000000000000000000, 0.0000000000000000000 ) ) ;
#269 = ADVANCED_FACE ( 'NONE', ( #261 ), #73, .T. ) ;
#270 = CARTESIAN_POINT ( 'NONE',  ( 0.0000000000000000000, 3.198598838310104900, -19.25881904510251600 ) ) ;
#271 = FACE_OUTER_BOUND ( 'NONE', #165, .T. ) ;
#272 = EDGE_CURVE ( 'NONE', #67, #91, #39, .T. ) ;
#273 = DIRECTION ( 'NONE',  ( 0.0000000000000000000, -1.000000000000000000, 0.0000000000000000000 ) ) ;
#274 = AXIS2_PLACEMENT_3D ( 'NONE', #149, #146, #136 ) ;
#275 = DIRECTION ( 'NONE',  ( 0.0000000000000000000, 0.0000000000000000000, -1.000000000000000000 ) ) ;
#276 = DIRECTION ( 'NONE',  ( 0.0000000000000000000, 0.0000000000000000000, 1.000000000000000000 ) ) ;
#277 = DIRECTION ( 'NONE',  ( -1.000000000000000000, -0.0000000000000000000, -0.0000000000000000000 ) ) ;
#278 = CARTESIAN_POINT ( 'NONE',  ( 2.449293598294705700E-015, 55.25579619824175400, -19.99999999999999300 ) ) ;
#279 = DIRECTION ( 'NONE',  ( -0.0000000000000000000, 1.000000000000000000, -0.0000000000000000000 ) ) ;
#280 = CARTESIAN_POINT ( 'NONE',  ( 0.0000000000000000000, 5.199999999999996600, 0.0000000000000000000 ) ) ;
#281 = CARTESIAN_POINT ( 'NONE',  ( 0.0000000000000000000, 0.3000000000000016500, -19.69999999999999200 ) ) ;
#282 = CYLINDRICAL_SURFACE ( 'NONE', #187, 19.99999999999999300 ) ;
#283 = UNCERTAINTY_MEASURE_WITH_UNIT (LENGTH_MEASURE( 1.000000000000000100E-005 ), #126, 'distance_accuracy_value', 'NONE');
#284 = CIRCLE ( 'NONE', #45, 19.69999999999999200 ) ;
#285 = ORIENTED_EDGE ( 'NONE', *, *, #259, .F. ) ;
#286 = CIRCLE ( 'NONE', #232, 0.3000000000000016500 ) ;
#287 = ORIENTED_EDGE ( 'NONE', *, *, #272, .T. ) ;
#288 = EDGE_CURVE ( 'NONE', #262, #195, #267, .T. ) ;
#289 = CARTESIAN_POINT ( 'NONE',  ( 0.0000000000000000000, 0.3000000000000016500, 0.0000000000000000000 ) ) ;
#290 = AXIS2_PLACEMENT_3D ( 'NONE', #248, #204, #189 ) ;
#291 = TOROIDAL_SURFACE ( 'NONE', #212, 19.69999999999999200, 0.2999999999999999900 ) ;
#292 = DIRECTION ( 'NONE',  ( 0.0000000000000000000, 0.0000000000000000000, 1.000000000000000000 ) ) ;
#293 = DIRECTION ( 'NONE',  ( -0.0000000000000000000, 1.000000000000000000, 0.0000000000000000000 ) ) ;
#294 = EDGE_CURVE ( 'NONE', #6, #151, #13, .T. ) ;
ENDSEC;
END-ISO-10303-21;
