ISO-10303-21;
HEADER;
FILE_DESCRIPTION (( 'STEP AP214' ),
    '1' );
FILE_NAME ('Hositrad_KF40B-GQ.STEP',
    '2017-03-23T10:34:05',
    ( 'Gebruiker' ),
    ( '' ),
    'SwSTEP 2.0',
    'SolidWorks 2017',
    '' );
FILE_SCHEMA (( 'AUTOMOTIVE_DESIGN' ));
ENDSEC;

DATA;
#1 = CARTESIAN_POINT ( 'NONE',  ( 0.0000000000000000000, 2.232673012021034500, 27.49999999999999300 ) ) ;
#2 = PRODUCT_RELATED_PRODUCT_CATEGORY ( 'part', '', ( #134 ) ) ;
#3 = AXIS2_PLACEMENT_3D ( 'NONE', #253, #230, #273 ) ;
#4 = DIRECTION ( 'NONE',  ( -1.224646799147353500E-016, 0.0000000000000000000, -1.000000000000000000 ) ) ;
#5 = CIRCLE ( 'NONE', #73, 18.54307806183472000 ) ;
#6 = ORIENTED_EDGE ( 'NONE', *, *, #25, .F. ) ;
#7 = DIRECTION ( 'NONE',  ( 0.0000000000000000000, 0.0000000000000000000, -1.000000000000000000 ) ) ;
#8 = CARTESIAN_POINT ( 'NONE',  ( 0.0000000000000000000, 2.232673012021034500, 0.0000000000000000000 ) ) ;
#9 = DIRECTION ( 'NONE',  ( 0.0000000000000000000, 0.0000000000000000000, -1.000000000000000000 ) ) ;
#10 = EDGE_LOOP ( 'NONE', ( #193, #43, #243, #128 ) ) ;
#11 =( LENGTH_UNIT ( ) NAMED_UNIT ( * ) SI_UNIT ( .MILLI., .METRE. ) );
#12 = CARTESIAN_POINT ( 'NONE',  ( 0.0000000000000000000, 5.399999999999995000, -18.54307806183472000 ) ) ;
#13 = DIRECTION ( 'NONE',  ( 0.0000000000000000000, -1.000000000000000000, 0.0000000000000000000 ) ) ;
#14 = ADVANCED_BREP_SHAPE_REPRESENTATION ( 'Hositrad_KF40B-GQ', ( #155, #183 ), #49 ) ;
#15 = EDGE_CURVE ( 'NONE', #289, #40, #63, .T. ) ;
#16 =( LENGTH_UNIT ( ) NAMED_UNIT ( * ) SI_UNIT ( .MILLI., .METRE. ) );
#17 = FACE_OUTER_BOUND ( 'NONE', #19, .T. ) ;
#18 = CIRCLE ( 'NONE', #283, 0.3000000000000016500 ) ;
#19 = EDGE_LOOP ( 'NONE', ( #272, #140, #86, #202 ) ) ;
#20 = AXIS2_PLACEMENT_3D ( 'NONE', #129, #255, #252 ) ;
#21 = ORIENTED_EDGE ( 'NONE', *, *, #37, .F. ) ;
#22 = AXIS2_PLACEMENT_3D ( 'NONE', #81, #154, #210 ) ;
#23 = VERTEX_POINT ( 'NONE', #41 ) ;
#24 = ADVANCED_FACE ( 'NONE', ( #77 ), #200, .T. ) ;
#25 = EDGE_CURVE ( 'NONE', #67, #172, #199, .T. ) ;
#26 = AXIS2_PLACEMENT_3D ( 'NONE', #291, #251, #277 ) ;
#27 = CARTESIAN_POINT ( 'NONE',  ( 2.773941164365671500E-015, 5.399999999999995000, 18.54307806183472000 ) ) ;
#28 = VECTOR ( 'NONE', #246, 1000.000000000000100 ) ;
#29 = CARTESIAN_POINT ( 'NONE',  ( 3.245314017740485000E-015, 2.232673012021034500, 26.49999999999999300 ) ) ;
#30 = SURFACE_SIDE_STYLE ('',( #219 ) ) ;
#31 = EDGE_LOOP ( 'NONE', ( #249, #116, #160, #197 ) ) ;
#32 =( NAMED_UNIT ( * ) PLANE_ANGLE_UNIT ( ) SI_UNIT ( $, .RADIAN. ) );
#33 = FACE_OUTER_BOUND ( 'NONE', #31, .T. ) ;
#34 = APPLICATION_CONTEXT ( 'automotive_design' ) ;
#35 = CIRCLE ( 'NONE', #22, 26.75881904510252000 ) ;
#36 = AXIS2_PLACEMENT_3D ( 'NONE', #234, #75, #138 ) ;
#37 = EDGE_CURVE ( 'NONE', #99, #67, #84, .T. ) ;
#38 = AXIS2_PLACEMENT_3D ( 'NONE', #29, #169, #4 ) ;
#39 = EDGE_CURVE ( 'NONE', #40, #289, #275, .T. ) ;
#40 = VERTEX_POINT ( 'NONE', #224 ) ;
#41 = CARTESIAN_POINT ( 'NONE',  ( 3.349408995668010100E-015, -1.680513367352531900E-015, 27.19999999999999200 ) ) ;
#42 = FACE_OUTER_BOUND ( 'NONE', #80, .T. ) ;
#43 = ORIENTED_EDGE ( 'NONE', *, *, #239, .T. ) ;
#44 = ADVANCED_FACE ( 'NONE', ( #17 ), #108, .T. ) ;
#45 = CARTESIAN_POINT ( 'NONE',  ( 0.0000000000000000000, 0.3000000000000016500, 0.0000000000000000000 ) ) ;
#46 = DIRECTION ( 'NONE',  ( -1.000000000000000000, -0.0000000000000000000, -0.0000000000000000000 ) ) ;
#47 = DIRECTION ( 'NONE',  ( -0.0000000000000000000, 1.000000000000000000, -0.0000000000000000000 ) ) ;
#48 = ORIENTED_EDGE ( 'NONE', *, *, #37, .T. ) ;
#49 =( GEOMETRIC_REPRESENTATION_CONTEXT ( 3 ) GLOBAL_UNCERTAINTY_ASSIGNED_CONTEXT ( ( #96 ) ) GLOBAL_UNIT_ASSIGNED_CONTEXT ( ( #16, #141, #107 ) ) REPRESENTATION_CONTEXT ( 'NONE', 'WORKASPACE' ) );
#50 = CARTESIAN_POINT ( 'NONE',  ( 0.0000000000000000000, 2.232673012021034500, -26.49999999999999300 ) ) ;
#51 = CIRCLE ( 'NONE', #105, 18.54307806183472000 ) ;
#52 = CARTESIAN_POINT ( 'NONE',  ( 2.270872119476539700E-015, 5.399999999999995000, 18.54307806183472000 ) ) ;
#53 = VERTEX_POINT ( 'NONE', #242 ) ;
#54 = PLANE ( 'NONE',  #265 ) ;
#55 = EDGE_CURVE ( 'NONE', #40, #231, #171, .T. ) ;
#56 = AXIS2_PLACEMENT_3D ( 'NONE', #166, #118, #76 ) ;
#57 = EDGE_CURVE ( 'NONE', #254, #146, #150, .T. ) ;
#58 = CONICAL_SURFACE ( 'NONE', #26, 18.54307806183472000, 1.308996938995746300 ) ;
#59 = ORIENTED_EDGE ( 'NONE', *, *, #83, .T. ) ;
#60 = APPLICATION_PROTOCOL_DEFINITION ( 'draft international standard', 'automotive_design', 1998, #216 ) ;
#61 = FACE_OUTER_BOUND ( 'NONE', #10, .T. ) ;
#62 = EDGE_CURVE ( 'NONE', #146, #254, #156, .T. ) ;
#63 = CIRCLE ( 'NONE', #287, 27.49999999999999300 ) ;
#64 = DIRECTION ( 'NONE',  ( 0.0000000000000000000, 0.0000000000000000000, -1.000000000000000000 ) ) ;
#65 = ORIENTED_EDGE ( 'NONE', *, *, #78, .T. ) ;
#66 = DIRECTION ( 'NONE',  ( 0.0000000000000000000, 0.0000000000000000000, -1.000000000000000000 ) ) ;
#67 = VERTEX_POINT ( 'NONE', #220 ) ;
#68 = COLOUR_RGB ( '',0.7921568627450980000, 0.8196078431372548800, 0.9333333333333333500 ) ;
#69 = DIRECTION ( 'NONE',  ( 0.0000000000000000000, -1.000000000000000000, 0.0000000000000000000 ) ) ;
#70 = ADVANCED_FACE ( 'NONE', ( #42 ), #58, .T. ) ;
#71 = DIRECTION ( 'NONE',  ( 0.0000000000000000000, -1.000000000000000000, 0.0000000000000000000 ) ) ;
#72 = EDGE_CURVE ( 'NONE', #67, #146, #263, .T. ) ;
#73 = AXIS2_PLACEMENT_3D ( 'NONE', #226, #163, #232 ) ;
#74 = CARTESIAN_POINT ( 'NONE',  ( 0.0000000000000000000, 0.3000000000000016500, 0.0000000000000000000 ) ) ;
#75 = DIRECTION ( 'NONE',  ( -0.0000000000000000000, 1.000000000000000000, -0.0000000000000000000 ) ) ;
#76 = DIRECTION ( 'NONE',  ( 0.0000000000000000000, 0.0000000000000000000, -1.000000000000000000 ) ) ;
#77 = FACE_OUTER_BOUND ( 'NONE', #214, .T. ) ;
#78 = EDGE_CURVE ( 'NONE', #231, #23, #114, .T. ) ;
#79 = CYLINDRICAL_SURFACE ( 'NONE', #36, 27.49999999999999300 ) ;
#80 = EDGE_LOOP ( 'NONE', ( #168, #48, #181, #209 ) ) ;
#81 = CARTESIAN_POINT ( 'NONE',  ( 0.0000000000000000000, 3.198598838310101400, 0.0000000000000000000 ) ) ;
#82 = CARTESIAN_POINT ( 'NONE',  ( 0.0000000000000000000, 3.198598838310101400, -26.75881904510252300 ) ) ;
#83 = EDGE_CURVE ( 'NONE', #53, #99, #5, .T. ) ;
#84 = LINE ( 'NONE', #52, #185 ) ;
#85 = STYLED_ITEM ( 'NONE', ( #179 ), #14 ) ;
#86 = ORIENTED_EDGE ( 'NONE', *, *, #89, .T. ) ;
#87 =( NAMED_UNIT ( * ) PLANE_ANGLE_UNIT ( ) SI_UNIT ( $, .RADIAN. ) );
#88 = PRODUCT_CONTEXT ( 'NONE', #34, 'mechanical' ) ;
#89 = EDGE_CURVE ( 'NONE', #172, #254, #258, .T. ) ;
#90 = AXIS2_PLACEMENT_3D ( 'NONE', #50, #46, #122 ) ;
#91 = ORIENTED_EDGE ( 'NONE', *, *, #39, .T. ) ;
#92 = EDGE_CURVE ( 'NONE', #289, #146, #180, .T. ) ;
#93 = DIRECTION ( 'NONE',  ( 0.0000000000000000000, -1.000000000000000000, 0.0000000000000000000 ) ) ;
#94 = ORIENTED_EDGE ( 'NONE', *, *, #286, .T. ) ;
#95 = CARTESIAN_POINT ( 'NONE',  ( 0.0000000000000000000, 0.3000000000000016500, -27.19999999999999200 ) ) ;
#96 = UNCERTAINTY_MEASURE_WITH_UNIT (LENGTH_MEASURE( 1.000000000000000100E-005 ), #16, 'distance_accuracy_value', 'NONE');
#97 = DIRECTION ( 'NONE',  ( 0.0000000000000000000, 0.0000000000000000000, 1.000000000000000000 ) ) ;
#98 = CONICAL_SURFACE ( 'NONE', #157, 18.54307806183472000, 1.308996938995746300 ) ;
#99 = VERTEX_POINT ( 'NONE', #27 ) ;
#100 = PRESENTATION_LAYER_ASSIGNMENT (  '', '', ( #85 ) ) ;
#101 = FILL_AREA_STYLE ('',( #194 ) ) ;
#102 = DIRECTION ( 'NONE',  ( 0.0000000000000000000, 0.0000000000000000000, -1.000000000000000000 ) ) ;
#103 = PRESENTATION_STYLE_ASSIGNMENT (( #256 ) ) ;
#104 = EDGE_CURVE ( 'NONE', #53, #172, #144, .T. ) ;
#105 = AXIS2_PLACEMENT_3D ( 'NONE', #227, #248, #97 ) ;
#106 = EDGE_LOOP ( 'NONE', ( #178, #91, #237, #112 ) ) ;
#107 =( NAMED_UNIT ( * ) SI_UNIT ( $, .STERADIAN. ) SOLID_ANGLE_UNIT ( ) );
#108 = TOROIDAL_SURFACE ( 'NONE', #147, 26.49999999999999300, 1.000000000000000000 ) ;
#109 = ORIENTED_EDGE ( 'NONE', *, *, #83, .F. ) ;
#110 = DIRECTION ( 'NONE',  ( 1.000000000000000000, 0.0000000000000000000, 0.0000000000000000000 ) ) ;
#111 = SURFACE_STYLE_FILL_AREA ( #101 ) ;
#112 = ORIENTED_EDGE ( 'NONE', *, *, #62, .T. ) ;
#113 = MECHANICAL_DESIGN_GEOMETRIC_PRESENTATION_REPRESENTATION (  '', ( #85 ), #139 ) ;
#114 = CIRCLE ( 'NONE', #56, 27.19999999999999200 ) ;
#115 = PRODUCT_DEFINITION_SHAPE ( 'NONE', 'NONE',  #195 ) ;
#116 = ORIENTED_EDGE ( 'NONE', *, *, #39, .F. ) ;
#117 = ADVANCED_FACE ( 'NONE', ( #33 ), #240, .T. ) ;
#118 = DIRECTION ( 'NONE',  ( 0.0000000000000000000, -1.000000000000000000, 0.0000000000000000000 ) ) ;
#119 = CIRCLE ( 'NONE', #143, 27.19999999999999200 ) ;
#120 = UNCERTAINTY_MEASURE_WITH_UNIT (LENGTH_MEASURE( 1.000000000000000100E-005 ), #133, 'distance_accuracy_value', 'NONE');
#121 = EDGE_CURVE ( 'NONE', #99, #53, #51, .T. ) ;
#122 = DIRECTION ( 'NONE',  ( 0.0000000000000000000, 0.0000000000000000000, 1.000000000000000000 ) ) ;
#123 = AXIS2_PLACEMENT_3D ( 'NONE', #149, #293, #190 ) ;
#124 = DIRECTION ( 'NONE',  ( 0.0000000000000000000, -1.000000000000000000, 0.0000000000000000000 ) ) ;
#125 = CARTESIAN_POINT ( 'NONE',  ( 3.367778697655220500E-015, 55.25579619824175400, -27.49999999999999300 ) ) ;
#126 = CARTESIAN_POINT ( 'NONE',  ( 0.0000000000000000000, -1.680513367352531900E-015, 0.0000000000000000000 ) ) ;
#127 = EDGE_CURVE ( 'NONE', #23, #231, #119, .T. ) ;
#128 = ORIENTED_EDGE ( 'NONE', *, *, #55, .F. ) ;
#129 = CARTESIAN_POINT ( 'NONE',  ( 0.0000000000000000000, 2.232673012021034500, 0.0000000000000000000 ) ) ;
#130 = SURFACE_SIDE_STYLE ('',( #111 ) ) ;
#131 = CARTESIAN_POINT ( 'NONE',  ( 0.0000000000000000000, -1.683889348827610100E-015, 0.0000000000000000000 ) ) ;
#132 = DIRECTION ( 'NONE',  ( 0.0000000000000000000, 0.0000000000000000000, 1.000000000000000000 ) ) ;
#133 =( LENGTH_UNIT ( ) NAMED_UNIT ( * ) SI_UNIT ( .MILLI., .METRE. ) );
#134 = PRODUCT ( 'Hositrad_KF40B-GQ', 'Hositrad_KF40B-GQ', '', ( #88 ) ) ;
#135 = DIRECTION ( 'NONE',  ( -1.224646799147346300E-016, 0.0000000000000000000, -1.000000000000000000 ) ) ;
#136 = AXIS2_PLACEMENT_3D ( 'NONE', #192, #170, #186 ) ;
#137 = EDGE_LOOP ( 'NONE', ( #21, #109, #198, #94 ) ) ;
#138 = DIRECTION ( 'NONE',  ( 0.0000000000000000000, 0.0000000000000000000, 1.000000000000000000 ) ) ;
#139 =( GEOMETRIC_REPRESENTATION_CONTEXT ( 3 ) GLOBAL_UNCERTAINTY_ASSIGNED_CONTEXT ( ( #120 ) ) GLOBAL_UNIT_ASSIGNED_CONTEXT ( ( #133, #87, #261 ) ) REPRESENTATION_CONTEXT ( 'NONE', 'WORKASPACE' ) );
#140 = ORIENTED_EDGE ( 'NONE', *, *, #286, .F. ) ;
#141 =( NAMED_UNIT ( * ) PLANE_ANGLE_UNIT ( ) SI_UNIT ( $, .RADIAN. ) );
#142 = EDGE_LOOP ( 'NONE', ( #189, #290, #267, #152 ) ) ;
#143 = AXIS2_PLACEMENT_3D ( 'NONE', #126, #153, #276 ) ;
#144 = LINE ( 'NONE', #12, #28 ) ;
#145 = CARTESIAN_POINT ( 'NONE',  ( 0.0000000000000000000, 0.3000000000000016500, 0.0000000000000000000 ) ) ;
#146 = VERTEX_POINT ( 'NONE', #1 ) ;
#147 = AXIS2_PLACEMENT_3D ( 'NONE', #8, #71, #66 ) ;
#148 = ADVANCED_FACE ( 'NONE', ( #61 ), #292, .T. ) ;
#149 = CARTESIAN_POINT ( 'NONE',  ( 0.0000000000000000000, 0.3000000000000016500, 0.0000000000000000000 ) ) ;
#150 = CIRCLE ( 'NONE', #294, 27.49999999999999300 ) ;
#151 = DIRECTION ( 'NONE',  ( 0.0000000000000000000, 0.0000000000000000000, 1.000000000000000000 ) ) ;
#152 = ORIENTED_EDGE ( 'NONE', *, *, #92, .F. ) ;
#153 = DIRECTION ( 'NONE',  ( 0.0000000000000000000, -1.000000000000000000, 0.0000000000000000000 ) ) ;
#154 = DIRECTION ( 'NONE',  ( -0.0000000000000000000, 1.000000000000000000, -0.0000000000000000000 ) ) ;
#155 = MANIFOLD_SOLID_BREP ( 'Fillet2', #221 ) ;
#156 = CIRCLE ( 'NONE', #20, 27.49999999999999300 ) ;
#157 = AXIS2_PLACEMENT_3D ( 'NONE', #175, #13, #102 ) ;
#158 = DIRECTION ( 'NONE',  ( -0.0000000000000000000, 1.000000000000000000, -0.0000000000000000000 ) ) ;
#159 = ORIENTED_EDGE ( 'NONE', *, *, #121, .T. ) ;
#160 = ORIENTED_EDGE ( 'NONE', *, *, #55, .T. ) ;
#161 = ADVANCED_FACE ( 'NONE', ( #285 ), #212, .T. ) ;
#162 = DIRECTION ( 'NONE',  ( 0.0000000000000000000, 0.0000000000000000000, -1.000000000000000000 ) ) ;
#163 = DIRECTION ( 'NONE',  ( -0.0000000000000000000, 1.000000000000000000, -0.0000000000000000000 ) ) ;
#164 = CARTESIAN_POINT ( 'NONE',  ( 0.0000000000000000000, 55.25579619824175400, 27.49999999999999300 ) ) ;
#165 = AXIS2_PLACEMENT_3D ( 'NONE', #74, #124, #9 ) ;
#166 = CARTESIAN_POINT ( 'NONE',  ( 0.0000000000000000000, -1.680513367352531900E-015, 0.0000000000000000000 ) ) ;
#167 = CARTESIAN_POINT ( 'NONE',  ( 0.0000000000000000000, -1.680513367352531900E-015, -27.19999999999999200 ) ) ;
#168 = ORIENTED_EDGE ( 'NONE', *, *, #121, .F. ) ;
#169 = DIRECTION ( 'NONE',  ( 1.000000000000000000, 0.0000000000000000000, -1.224646799147353200E-016 ) ) ;
#170 = DIRECTION ( 'NONE',  ( -0.0000000000000000000, 1.000000000000000000, -0.0000000000000000000 ) ) ;
#171 = CIRCLE ( 'NONE', #260, 0.3000000000000016500 ) ;
#172 = VERTEX_POINT ( 'NONE', #82 ) ;
#173 =( NAMED_UNIT ( * ) SI_UNIT ( $, .STERADIAN. ) SOLID_ANGLE_UNIT ( ) );
#174 = UNCERTAINTY_MEASURE_WITH_UNIT (LENGTH_MEASURE( 1.000000000000000100E-005 ), #11, 'distance_accuracy_value', 'NONE');
#175 = CARTESIAN_POINT ( 'NONE',  ( 0.0000000000000000000, 5.399999999999995000, 0.0000000000000000000 ) ) ;
#176 = SURFACE_STYLE_USAGE ( .BOTH. , #30 ) ;
#177 = CARTESIAN_POINT ( 'NONE',  ( 0.0000000000000000000, 0.3000000000000016500, 27.49999999999999300 ) ) ;
#178 = ORIENTED_EDGE ( 'NONE', *, *, #228, .F. ) ;
#179 = PRESENTATION_STYLE_ASSIGNMENT (( #176 ) ) ;
#180 = LINE ( 'NONE', #164, #236 ) ;
#181 = ORIENTED_EDGE ( 'NONE', *, *, #25, .T. ) ;
#182 = COLOUR_RGB ( '',0.7921568627450980000, 0.8196078431372548800, 0.9333333333333333500 ) ;
#183 = AXIS2_PLACEMENT_3D ( 'NONE', #238, #262, #110 ) ;
#184 = STYLED_ITEM ( 'NONE', ( #103 ), #155 ) ;
#185 = VECTOR ( 'NONE', #268, 1000.000000000000100 ) ;
#186 = DIRECTION ( 'NONE',  ( 0.0000000000000000000, 0.0000000000000000000, 1.000000000000000000 ) ) ;
#187 = EDGE_LOOP ( 'NONE', ( #6, #282, #205, #284 ) ) ;
#188 = ADVANCED_FACE ( 'NONE', ( #225 ), #54, .T. ) ;
#189 = ORIENTED_EDGE ( 'NONE', *, *, #15, .T. ) ;
#190 = DIRECTION ( 'NONE',  ( 0.0000000000000000000, 0.0000000000000000000, -1.000000000000000000 ) ) ;
#191 = EDGE_LOOP ( 'NONE', ( #59, #159 ) ) ;
#192 = CARTESIAN_POINT ( 'NONE',  ( 0.0000000000000000000, 3.198598838310101400, 0.0000000000000000000 ) ) ;
#193 = ORIENTED_EDGE ( 'NONE', *, *, #15, .F. ) ;
#194 = FILL_AREA_STYLE_COLOUR ( '', #182 ) ;
#195 = PRODUCT_DEFINITION ( 'UNKNOWN', '', #281, #274 ) ;
#196 = PRESENTATION_LAYER_ASSIGNMENT (  '', '', ( #184 ) ) ;
#197 = ORIENTED_EDGE ( 'NONE', *, *, #127, .F. ) ;
#198 = ORIENTED_EDGE ( 'NONE', *, *, #104, .T. ) ;
#199 = CIRCLE ( 'NONE', #136, 26.75881904510252000 ) ;
#200 = PLANE ( 'NONE',  #229 ) ;
#201 = SHAPE_DEFINITION_REPRESENTATION ( #115, #14 ) ;
#202 = ORIENTED_EDGE ( 'NONE', *, *, #62, .F. ) ;
#203 = DIRECTION ( 'NONE',  ( -0.0000000000000000000, 1.000000000000000000, -0.0000000000000000000 ) ) ;
#204 = DIRECTION ( 'NONE',  ( -0.0000000000000000000, 1.000000000000000000, -0.0000000000000000000 ) ) ;
#205 = ORIENTED_EDGE ( 'NONE', *, *, #57, .F. ) ;
#206 = MECHANICAL_DESIGN_GEOMETRIC_PRESENTATION_REPRESENTATION (  '', ( #184 ), #217 ) ;
#207 = DIRECTION ( 'NONE',  ( 1.000000000000000000, 0.0000000000000000000, -1.224646799147353200E-016 ) ) ;
#208 = FACE_OUTER_BOUND ( 'NONE', #187, .T. ) ;
#209 = ORIENTED_EDGE ( 'NONE', *, *, #104, .F. ) ;
#210 = DIRECTION ( 'NONE',  ( 0.0000000000000000000, 0.0000000000000000000, 1.000000000000000000 ) ) ;
#211 = DIRECTION ( 'NONE',  ( 0.0000000000000000000, 0.0000000000000000000, 1.000000000000000000 ) ) ;
#212 = CYLINDRICAL_SURFACE ( 'NONE', #250, 27.49999999999999300 ) ;
#213 = AXIS2_PLACEMENT_3D ( 'NONE', #45, #203, #162 ) ;
#214 = EDGE_LOOP ( 'NONE', ( #65, #218 ) ) ;
#215 = APPLICATION_PROTOCOL_DEFINITION ( 'draft international standard', 'automotive_design', 1998, #34 ) ;
#216 = APPLICATION_CONTEXT ( 'automotive_design' ) ;
#217 =( GEOMETRIC_REPRESENTATION_CONTEXT ( 3 ) GLOBAL_UNCERTAINTY_ASSIGNED_CONTEXT ( ( #174 ) ) GLOBAL_UNIT_ASSIGNED_CONTEXT ( ( #11, #32, #173 ) ) REPRESENTATION_CONTEXT ( 'NONE', 'WORKASPACE' ) );
#218 = ORIENTED_EDGE ( 'NONE', *, *, #127, .T. ) ;
#219 = SURFACE_STYLE_FILL_AREA ( #280 ) ;
#220 = CARTESIAN_POINT ( 'NONE',  ( 3.277010209254803700E-015, 3.198598838310101400, 26.75881904510252300 ) ) ;
#221 = CLOSED_SHELL ( 'NONE', ( #148, #269, #70, #244, #24, #161, #223, #188, #44, #117 ) ) ;
#222 = CARTESIAN_POINT ( 'NONE',  ( 0.0000000000000000000, 2.232673012021034500, 0.0000000000000000000 ) ) ;
#223 = ADVANCED_FACE ( 'NONE', ( #279 ), #98, .T. ) ;
#224 = CARTESIAN_POINT ( 'NONE',  ( 3.367778697655220500E-015, 0.3000000000000016500, -27.49999999999999300 ) ) ;
#225 = FACE_OUTER_BOUND ( 'NONE', #191, .T. ) ;
#226 = CARTESIAN_POINT ( 'NONE',  ( 0.0000000000000000000, 5.399999999999995000, 0.0000000000000000000 ) ) ;
#227 = CARTESIAN_POINT ( 'NONE',  ( 0.0000000000000000000, 5.399999999999995000, 0.0000000000000000000 ) ) ;
#228 = EDGE_CURVE ( 'NONE', #40, #254, #264, .T. ) ;
#229 = AXIS2_PLACEMENT_3D ( 'NONE', #131, #93, #241 ) ;
#230 = DIRECTION ( 'NONE',  ( 0.0000000000000000000, -1.000000000000000000, 0.0000000000000000000 ) ) ;
#231 = VERTEX_POINT ( 'NONE', #167 ) ;
#232 = DIRECTION ( 'NONE',  ( 0.0000000000000000000, 0.0000000000000000000, 1.000000000000000000 ) ) ;
#233 = FILL_AREA_STYLE_COLOUR ( '', #68 ) ;
#234 = CARTESIAN_POINT ( 'NONE',  ( 0.0000000000000000000, 55.25579619824175400, 0.0000000000000000000 ) ) ;
#235 = CARTESIAN_POINT ( 'NONE',  ( 3.367778697655220500E-015, 2.232673012021034500, -27.49999999999999300 ) ) ;
#236 = VECTOR ( 'NONE', #204, 1000.000000000000000 ) ;
#237 = ORIENTED_EDGE ( 'NONE', *, *, #92, .T. ) ;
#238 = CARTESIAN_POINT ( 'NONE',  ( 0.0000000000000000000, 0.0000000000000000000, 0.0000000000000000000 ) ) ;
#239 = EDGE_CURVE ( 'NONE', #289, #23, #18, .T. ) ;
#240 = TOROIDAL_SURFACE ( 'NONE', #123, 27.19999999999999200, 0.2999999999999999900 ) ;
#241 = DIRECTION ( 'NONE',  ( 0.0000000000000000000, -0.0000000000000000000, -1.000000000000000000 ) ) ;
#242 = CARTESIAN_POINT ( 'NONE',  ( 0.0000000000000000000, 5.399999999999995000, -18.54307806183472000 ) ) ;
#243 = ORIENTED_EDGE ( 'NONE', *, *, #78, .F. ) ;
#244 = ADVANCED_FACE ( 'NONE', ( #259 ), #79, .T. ) ;
#245 = CARTESIAN_POINT ( 'NONE',  ( 0.0000000000000000000, 55.25579619824175400, 0.0000000000000000000 ) ) ;
#246 = DIRECTION ( 'NONE',  ( 0.0000000000000000000, -0.2588190451025215200, -0.9659258262890679800 ) ) ;
#247 = CARTESIAN_POINT ( 'NONE',  ( 3.331039293680799700E-015, 0.3000000000000016500, 27.19999999999999200 ) ) ;
#248 = DIRECTION ( 'NONE',  ( -0.0000000000000000000, 1.000000000000000000, -0.0000000000000000000 ) ) ;
#249 = ORIENTED_EDGE ( 'NONE', *, *, #239, .F. ) ;
#250 = AXIS2_PLACEMENT_3D ( 'NONE', #245, #47, #211 ) ;
#251 = DIRECTION ( 'NONE',  ( 0.0000000000000000000, -1.000000000000000000, 0.0000000000000000000 ) ) ;
#252 = DIRECTION ( 'NONE',  ( 0.0000000000000000000, 0.0000000000000000000, -1.000000000000000000 ) ) ;
#253 = CARTESIAN_POINT ( 'NONE',  ( 0.0000000000000000000, 2.232673012021034500, 0.0000000000000000000 ) ) ;
#254 = VERTEX_POINT ( 'NONE', #235 ) ;
#255 = DIRECTION ( 'NONE',  ( 0.0000000000000000000, -1.000000000000000000, 0.0000000000000000000 ) ) ;
#256 = SURFACE_STYLE_USAGE ( .BOTH. , #130 ) ;
#257 = CARTESIAN_POINT ( 'NONE',  ( -18.54307806183472000, 5.399999999999998600, 0.0000000000000000000 ) ) ;
#258 = CIRCLE ( 'NONE', #90, 1.000000000000000900 ) ;
#259 = FACE_OUTER_BOUND ( 'NONE', #142, .T. ) ;
#260 = AXIS2_PLACEMENT_3D ( 'NONE', #95, #270, #151 ) ;
#261 =( NAMED_UNIT ( * ) SI_UNIT ( $, .STERADIAN. ) SOLID_ANGLE_UNIT ( ) );
#262 = DIRECTION ( 'NONE',  ( 0.0000000000000000000, 0.0000000000000000000, 1.000000000000000000 ) ) ;
#263 = CIRCLE ( 'NONE', #38, 1.000000000000000900 ) ;
#264 = LINE ( 'NONE', #125, #271 ) ;
#265 = AXIS2_PLACEMENT_3D ( 'NONE', #257, #278, #132 ) ;
#266 = TOROIDAL_SURFACE ( 'NONE', #3, 26.49999999999999300, 1.000000000000000000 ) ;
#267 = ORIENTED_EDGE ( 'NONE', *, *, #57, .T. ) ;
#268 = DIRECTION ( 'NONE',  ( 1.182917971378669300E-016, -0.2588190451025215200, 0.9659258262890679800 ) ) ;
#269 = ADVANCED_FACE ( 'NONE', ( #208 ), #266, .T. ) ;
#270 = DIRECTION ( 'NONE',  ( -1.000000000000000000, -0.0000000000000000000, -0.0000000000000000000 ) ) ;
#271 = VECTOR ( 'NONE', #158, 1000.000000000000000 ) ;
#272 = ORIENTED_EDGE ( 'NONE', *, *, #72, .F. ) ;
#273 = DIRECTION ( 'NONE',  ( 0.0000000000000000000, 0.0000000000000000000, -1.000000000000000000 ) ) ;
#274 = PRODUCT_DEFINITION_CONTEXT ( 'detailed design', #216, 'design' ) ;
#275 = CIRCLE ( 'NONE', #213, 27.49999999999999300 ) ;
#276 = DIRECTION ( 'NONE',  ( 0.0000000000000000000, 0.0000000000000000000, -1.000000000000000000 ) ) ;
#277 = DIRECTION ( 'NONE',  ( 0.0000000000000000000, 0.0000000000000000000, -1.000000000000000000 ) ) ;
#278 = DIRECTION ( 'NONE',  ( -0.0000000000000000000, 1.000000000000000000, 0.0000000000000000000 ) ) ;
#279 = FACE_OUTER_BOUND ( 'NONE', #137, .T. ) ;
#280 = FILL_AREA_STYLE ('',( #233 ) ) ;
#281 = PRODUCT_DEFINITION_FORMATION_WITH_SPECIFIED_SOURCE ( 'ANY', '', #134, .NOT_KNOWN. ) ;
#282 = ORIENTED_EDGE ( 'NONE', *, *, #72, .T. ) ;
#283 = AXIS2_PLACEMENT_3D ( 'NONE', #247, #207, #135 ) ;
#284 = ORIENTED_EDGE ( 'NONE', *, *, #89, .F. ) ;
#285 = FACE_OUTER_BOUND ( 'NONE', #106, .T. ) ;
#286 = EDGE_CURVE ( 'NONE', #172, #67, #35, .T. ) ;
#287 = AXIS2_PLACEMENT_3D ( 'NONE', #145, #288, #64 ) ;
#288 = DIRECTION ( 'NONE',  ( -0.0000000000000000000, 1.000000000000000000, -0.0000000000000000000 ) ) ;
#289 = VERTEX_POINT ( 'NONE', #177 ) ;
#290 = ORIENTED_EDGE ( 'NONE', *, *, #228, .T. ) ;
#291 = CARTESIAN_POINT ( 'NONE',  ( 0.0000000000000000000, 5.399999999999995000, 0.0000000000000000000 ) ) ;
#292 = TOROIDAL_SURFACE ( 'NONE', #165, 27.19999999999999200, 0.2999999999999999900 ) ;
#293 = DIRECTION ( 'NONE',  ( 0.0000000000000000000, -1.000000000000000000, 0.0000000000000000000 ) ) ;
#294 = AXIS2_PLACEMENT_3D ( 'NONE', #222, #69, #7 ) ;
ENDSEC;
END-ISO-10303-21;
