ISO-10303-21;
HEADER;
FILE_DESCRIPTION (( 'STEP AP214' ),
    '1' );
FILE_NAME ('Hositrad_KF50B-GQ.STEP',
    '2017-03-23T10:28:01',
    ( 'Gebruiker' ),
    ( '' ),
    'SwSTEP 2.0',
    'SolidWorks 2017',
    '' );
FILE_SCHEMA (( 'AUTOMOTIVE_DESIGN' ));
ENDSEC;

DATA;
#1 = DIRECTION ( 'NONE',  ( -0.0000000000000000000, 1.000000000000000000, -0.0000000000000000000 ) ) ;
#2 = VERTEX_POINT ( 'NONE', #281 ) ;
#3 = PLANE ( 'NONE',  #196 ) ;
#4 = CARTESIAN_POINT ( 'NONE',  ( 4.592425496802573600E-015, 55.25579619824175400, -37.49999999999999300 ) ) ;
#5 = CARTESIAN_POINT ( 'NONE',  ( 0.0000000000000000000, 5.400000000000002100, 0.0000000000000000000 ) ) ;
#6 = EDGE_CURVE ( 'NONE', #286, #73, #200, .T. ) ;
#7 = DIRECTION ( 'NONE',  ( 0.0000000000000000000, 0.0000000000000000000, -1.000000000000000000 ) ) ;
#8 = ORIENTED_EDGE ( 'NONE', *, *, #142, .T. ) ;
#9 = CARTESIAN_POINT ( 'NONE',  ( 0.0000000000000000000, 2.232673012021041200, 0.0000000000000000000 ) ) ;
#10 = MECHANICAL_DESIGN_GEOMETRIC_PRESENTATION_REPRESENTATION (  '', ( #113 ), #108 ) ;
#11 = CIRCLE ( 'NONE', #56, 1.000000000000000900 ) ;
#12 = UNCERTAINTY_MEASURE_WITH_UNIT (LENGTH_MEASURE( 1.000000000000000100E-005 ), #112, 'distance_accuracy_value', 'NONE');
#13 = UNCERTAINTY_MEASURE_WITH_UNIT (LENGTH_MEASURE( 1.000000000000000100E-005 ), #64, 'distance_accuracy_value', 'NONE');
#14 = EDGE_CURVE ( 'NONE', #193, #291, #216, .T. ) ;
#15 = CARTESIAN_POINT ( 'NONE',  ( 0.0000000000000000000, -2.276824562219559300E-015, -37.19999999999998900 ) ) ;
#16 =( NAMED_UNIT ( * ) PLANE_ANGLE_UNIT ( ) SI_UNIT ( $, .RADIAN. ) );
#17 = ORIENTED_EDGE ( 'NONE', *, *, #20, .F. ) ;
#18 = FILL_AREA_STYLE ('',( #160 ) ) ;
#19 = DIRECTION ( 'NONE',  ( -0.0000000000000000000, 1.000000000000000000, -0.0000000000000000000 ) ) ;
#20 = EDGE_CURVE ( 'NONE', #286, #84, #259, .T. ) ;
#21 = FACE_OUTER_BOUND ( 'NONE', #235, .T. ) ;
#22 = CARTESIAN_POINT ( 'NONE',  ( 0.0000000000000000000, 2.232673012021041200, 0.0000000000000000000 ) ) ;
#23 = AXIS2_PLACEMENT_3D ( 'NONE', #165, #292, #182 ) ;
#24 = CIRCLE ( 'NONE', #23, 37.19999999999998900 ) ;
#25 = AXIS2_PLACEMENT_3D ( 'NONE', #44, #273, #230 ) ;
#26 = FACE_OUTER_BOUND ( 'NONE', #288, .T. ) ;
#27 = VECTOR ( 'NONE', #189, 1000.000000000000000 ) ;
#28 = ADVANCED_FACE ( 'NONE', ( #21 ), #213, .T. ) ;
#29 = DIRECTION ( 'NONE',  ( 0.0000000000000000000, 0.0000000000000000000, -1.000000000000000000 ) ) ;
#30 = CARTESIAN_POINT ( 'NONE',  ( 0.0000000000000000000, -2.276824562219559300E-015, 0.0000000000000000000 ) ) ;
#31 = DIRECTION ( 'NONE',  ( 0.0000000000000000000, -1.000000000000000000, 0.0000000000000000000 ) ) ;
#32 = PRESENTATION_STYLE_ASSIGNMENT (( #35 ) ) ;
#33 = TOROIDAL_SURFACE ( 'NONE', #37, 36.49999999999999300, 1.000000000000000000 ) ;
#34 = ORIENTED_EDGE ( 'NONE', *, *, #139, .F. ) ;
#35 = SURFACE_STYLE_USAGE ( .BOTH. , #201 ) ;
#36 =( NAMED_UNIT ( * ) SI_UNIT ( $, .STERADIAN. ) SOLID_ANGLE_UNIT ( ) );
#37 = AXIS2_PLACEMENT_3D ( 'NONE', #68, #42, #269 ) ;
#38 =( NAMED_UNIT ( * ) PLANE_ANGLE_UNIT ( ) SI_UNIT ( $, .RADIAN. ) );
#39 = ORIENTED_EDGE ( 'NONE', *, *, #282, .F. ) ;
#40 = EDGE_LOOP ( 'NONE', ( #123, #53, #211, #253 ) ) ;
#41 = EDGE_CURVE ( 'NONE', #84, #45, #24, .T. ) ;
#42 = DIRECTION ( 'NONE',  ( 0.0000000000000000000, -1.000000000000000000, 0.0000000000000000000 ) ) ;
#43 = VECTOR ( 'NONE', #46, 1000.000000000000000 ) ;
#44 = CARTESIAN_POINT ( 'NONE',  ( 0.0000000000000000000, 55.25579619824175400, 0.0000000000000000000 ) ) ;
#45 = VERTEX_POINT ( 'NONE', #244 ) ;
#46 = DIRECTION ( 'NONE',  ( 1.182917971378669300E-016, -0.2588190451025217900, 0.9659258262890679800 ) ) ;
#47 = DIRECTION ( 'NONE',  ( 0.0000000000000000000, 0.0000000000000000000, 1.000000000000000000 ) ) ;
#48 = VERTEX_POINT ( 'NONE', #257 ) ;
#49 = STYLED_ITEM ( 'NONE', ( #32 ), #67 ) ;
#50 = ORIENTED_EDGE ( 'NONE', *, *, #272, .T. ) ;
#51 = ADVANCED_FACE ( 'NONE', ( #151 ), #3, .T. ) ;
#52 = CARTESIAN_POINT ( 'NONE',  ( 0.0000000000000000000, 0.2999999999999947200, 0.0000000000000000000 ) ) ;
#53 = ORIENTED_EDGE ( 'NONE', *, *, #210, .T. ) ;
#54 = CARTESIAN_POINT ( 'NONE',  ( 0.0000000000000000000, 0.2999999999999947200, 0.0000000000000000000 ) ) ;
#55 = DIRECTION ( 'NONE',  ( 0.0000000000000000000, -1.000000000000000000, 0.0000000000000000000 ) ) ;
#56 = AXIS2_PLACEMENT_3D ( 'NONE', #260, #98, #241 ) ;
#57 = DIRECTION ( 'NONE',  ( 0.0000000000000000000, 0.0000000000000000000, 1.000000000000000000 ) ) ;
#58 = PRODUCT ( 'Hositrad_KF50B-GQ', 'Hositrad_KF50B-GQ', '', ( #161 ) ) ;
#59 = LINE ( 'NONE', #134, #43 ) ;
#60 = DIRECTION ( 'NONE',  ( -0.0000000000000000000, 1.000000000000000000, -0.0000000000000000000 ) ) ;
#61 = ORIENTED_EDGE ( 'NONE', *, *, #162, .F. ) ;
#62 = FILL_AREA_STYLE ('',( #191 ) ) ;
#63 = ORIENTED_EDGE ( 'NONE', *, *, #153, .F. ) ;
#64 =( LENGTH_UNIT ( ) NAMED_UNIT ( * ) SI_UNIT ( .MILLI., .METRE. ) );
#65 =( GEOMETRIC_REPRESENTATION_CONTEXT ( 3 ) GLOBAL_UNCERTAINTY_ASSIGNED_CONTEXT ( ( #186 ) ) GLOBAL_UNIT_ASSIGNED_CONTEXT ( ( #179, #16, #149 ) ) REPRESENTATION_CONTEXT ( 'NONE', 'WORKASPACE' ) );
#66 = CARTESIAN_POINT ( 'NONE',  ( 4.592425496802573600E-015, 0.2999999999999947200, -37.49999999999999300 ) ) ;
#67 = MANIFOLD_SOLID_BREP ( 'Fillet2', #204 ) ;
#68 = CARTESIAN_POINT ( 'NONE',  ( 0.0000000000000000000, 2.232673012021041200, 0.0000000000000000000 ) ) ;
#69 = ADVANCED_BREP_SHAPE_REPRESENTATION ( 'Hositrad_KF50B-GQ', ( #67, #276 ), #102 ) ;
#70 = CARTESIAN_POINT ( 'NONE',  ( 4.501657008402154000E-015, 3.198598838310107600, 36.75881904510250600 ) ) ;
#71 = PRESENTATION_STYLE_ASSIGNMENT (( #150 ) ) ;
#72 = ORIENTED_EDGE ( 'NONE', *, *, #137, .F. ) ;
#73 = VERTEX_POINT ( 'NONE', #180 ) ;
#74 = PRODUCT_DEFINITION_FORMATION_WITH_SPECIFIED_SOURCE ( 'ANY', '', #58, .NOT_KNOWN. ) ;
#75 = FACE_OUTER_BOUND ( 'NONE', #118, .T. ) ;
#76 = EDGE_CURVE ( 'NONE', #286, #193, #263, .T. ) ;
#77 = DIRECTION ( 'NONE',  ( -1.000000000000000000, -0.0000000000000000000, -0.0000000000000000000 ) ) ;
#78 = ADVANCED_FACE ( 'NONE', ( #132 ), #121, .T. ) ;
#79 = ORIENTED_EDGE ( 'NONE', *, *, #177, .F. ) ;
#80 = PRODUCT_RELATED_PRODUCT_CATEGORY ( 'part', '', ( #58 ) ) ;
#81 = CIRCLE ( 'NONE', #225, 0.3000000000000016500 ) ;
#82 = AXIS2_PLACEMENT_3D ( 'NONE', #195, #31, #172 ) ;
#83 = CARTESIAN_POINT ( 'NONE',  ( 0.0000000000000000000, -2.296212748401286800E-015, 0.0000000000000000000 ) ) ;
#84 = VERTEX_POINT ( 'NONE', #15 ) ;
#85 = DIRECTION ( 'NONE',  ( 0.0000000000000000000, 0.0000000000000000000, -1.000000000000000000 ) ) ;
#86 = ORIENTED_EDGE ( 'NONE', *, *, #41, .T. ) ;
#87 = DIRECTION ( 'NONE',  ( -0.0000000000000000000, 1.000000000000000000, -0.0000000000000000000 ) ) ;
#88 = ORIENTED_EDGE ( 'NONE', *, *, #153, .T. ) ;
#89 = DIRECTION ( 'NONE',  ( 0.0000000000000000000, 0.0000000000000000000, -1.000000000000000000 ) ) ;
#90 = DIRECTION ( 'NONE',  ( 1.000000000000000000, 0.0000000000000000000, -1.224646799147353200E-016 ) ) ;
#91 = CARTESIAN_POINT ( 'NONE',  ( 0.0000000000000000000, 55.25579619824175400, 0.0000000000000000000 ) ) ;
#92 = ORIENTED_EDGE ( 'NONE', *, *, #6, .T. ) ;
#93 = APPLICATION_CONTEXT ( 'automotive_design' ) ;
#94 = AXIS2_PLACEMENT_3D ( 'NONE', #270, #90, #251 ) ;
#95 = ADVANCED_FACE ( 'NONE', ( #250 ), #178, .T. ) ;
#96 = CYLINDRICAL_SURFACE ( 'NONE', #25, 37.49999999999999300 ) ;
#97 = EDGE_LOOP ( 'NONE', ( #34, #181, #72, #63 ) ) ;
#98 = DIRECTION ( 'NONE',  ( -1.000000000000000000, -0.0000000000000000000, -0.0000000000000000000 ) ) ;
#99 = DIRECTION ( 'NONE',  ( 0.0000000000000000000, 0.0000000000000000000, -1.000000000000000000 ) ) ;
#100 = VECTOR ( 'NONE', #101, 1000.000000000000000 ) ;
#101 = DIRECTION ( 'NONE',  ( -0.0000000000000000000, 1.000000000000000000, -0.0000000000000000000 ) ) ;
#102 =( GEOMETRIC_REPRESENTATION_CONTEXT ( 3 ) GLOBAL_UNCERTAINTY_ASSIGNED_CONTEXT ( ( #12 ) ) GLOBAL_UNIT_ASSIGNED_CONTEXT ( ( #112, #38, #117 ) ) REPRESENTATION_CONTEXT ( 'NONE', 'WORKASPACE' ) );
#103 = AXIS2_PLACEMENT_3D ( 'NONE', #144, #77, #57 ) ;
#104 = ORIENTED_EDGE ( 'NONE', *, *, #197, .T. ) ;
#105 = CONICAL_SURFACE ( 'NONE', #146, 28.54307806183470200, 1.308996938995746100 ) ;
#106 = ORIENTED_EDGE ( 'NONE', *, *, #209, .T. ) ;
#107 = DIRECTION ( 'NONE',  ( 0.0000000000000000000, -0.0000000000000000000, -1.000000000000000000 ) ) ;
#108 =( GEOMETRIC_REPRESENTATION_CONTEXT ( 3 ) GLOBAL_UNCERTAINTY_ASSIGNED_CONTEXT ( ( #13 ) ) GLOBAL_UNIT_ASSIGNED_CONTEXT ( ( #64, #202, #36 ) ) REPRESENTATION_CONTEXT ( 'NONE', 'WORKASPACE' ) );
#109 = SURFACE_SIDE_STYLE ('',( #129 ) ) ;
#110 = EDGE_LOOP ( 'NONE', ( #148, #39, #104, #220 ) ) ;
#111 = ORIENTED_EDGE ( 'NONE', *, *, #20, .T. ) ;
#112 =( LENGTH_UNIT ( ) NAMED_UNIT ( * ) SI_UNIT ( .MILLI., .METRE. ) );
#113 = STYLED_ITEM ( 'NONE', ( #71 ), #69 ) ;
#114 = DIRECTION ( 'NONE',  ( 0.0000000000000000000, 0.0000000000000000000, 1.000000000000000000 ) ) ;
#115 = ORIENTED_EDGE ( 'NONE', *, *, #41, .F. ) ;
#116 = DIRECTION ( 'NONE',  ( 1.000000000000000000, 0.0000000000000000000, -1.224646799147353200E-016 ) ) ;
#117 =( NAMED_UNIT ( * ) SI_UNIT ( $, .STERADIAN. ) SOLID_ANGLE_UNIT ( ) );
#118 = EDGE_LOOP ( 'NONE', ( #130, #92, #166, #188 ) ) ;
#119 = AXIS2_PLACEMENT_3D ( 'NONE', #175, #55, #239 ) ;
#120 = AXIS2_PLACEMENT_3D ( 'NONE', #285, #125, #262 ) ;
#121 = CONICAL_SURFACE ( 'NONE', #168, 28.54307806183470200, 1.308996938995746100 ) ;
#122 = DIRECTION ( 'NONE',  ( 0.0000000000000000000, -1.000000000000000000, 0.0000000000000000000 ) ) ;
#123 = ORIENTED_EDGE ( 'NONE', *, *, #290, .F. ) ;
#124 = DIRECTION ( 'NONE',  ( -0.0000000000000000000, 1.000000000000000000, -0.0000000000000000000 ) ) ;
#125 = DIRECTION ( 'NONE',  ( -0.0000000000000000000, 1.000000000000000000, 0.0000000000000000000 ) ) ;
#126 = AXIS2_PLACEMENT_3D ( 'NONE', #221, #60, #199 ) ;
#127 = FACE_OUTER_BOUND ( 'NONE', #170, .T. ) ;
#128 = DIRECTION ( 'NONE',  ( 0.0000000000000000000, -1.000000000000000000, 0.0000000000000000000 ) ) ;
#129 = SURFACE_STYLE_FILL_AREA ( #18 ) ;
#130 = ORIENTED_EDGE ( 'NONE', *, *, #162, .T. ) ;
#131 = AXIS2_PLACEMENT_3D ( 'NONE', #22, #133, #156 ) ;
#132 = FACE_OUTER_BOUND ( 'NONE', #110, .T. ) ;
#133 = DIRECTION ( 'NONE',  ( 0.0000000000000000000, -1.000000000000000000, 0.0000000000000000000 ) ) ;
#134 = CARTESIAN_POINT ( 'NONE',  ( 3.495518918623890400E-015, 5.400000000000002100, 28.54307806183470200 ) ) ;
#135 = ORIENTED_EDGE ( 'NONE', *, *, #209, .F. ) ;
#136 = CARTESIAN_POINT ( 'NONE',  ( 0.0000000000000000000, 0.0000000000000000000, 0.0000000000000000000 ) ) ;
#137 = EDGE_CURVE ( 'NONE', #73, #291, #184, .T. ) ;
#138 = CIRCLE ( 'NONE', #243, 37.19999999999998900 ) ;
#139 = EDGE_CURVE ( 'NONE', #233, #279, #206, .T. ) ;
#140 = ADVANCED_FACE ( 'NONE', ( #127 ), #145, .T. ) ;
#141 = EDGE_LOOP ( 'NONE', ( #86, #8 ) ) ;
#142 = EDGE_CURVE ( 'NONE', #45, #84, #138, .T. ) ;
#143 = DIRECTION ( 'NONE',  ( 0.0000000000000000000, -1.000000000000000000, 0.0000000000000000000 ) ) ;
#144 = CARTESIAN_POINT ( 'NONE',  ( 0.0000000000000000000, 0.2999999999999947200, -37.19999999999998900 ) ) ;
#145 = TOROIDAL_SURFACE ( 'NONE', #264, 37.19999999999998900, 0.2999999999999999900 ) ;
#146 = AXIS2_PLACEMENT_3D ( 'NONE', #5, #226, #89 ) ;
#147 = CIRCLE ( 'NONE', #183, 28.54307806183470200 ) ;
#148 = ORIENTED_EDGE ( 'NONE', *, *, #210, .F. ) ;
#149 =( NAMED_UNIT ( * ) SI_UNIT ( $, .STERADIAN. ) SOLID_ANGLE_UNIT ( ) );
#150 = SURFACE_STYLE_USAGE ( .BOTH. , #109 ) ;
#151 = FACE_OUTER_BOUND ( 'NONE', #141, .T. ) ;
#152 = APPLICATION_PROTOCOL_DEFINITION ( 'draft international standard', 'automotive_design', 1998, #93 ) ;
#153 = EDGE_CURVE ( 'NONE', #279, #73, #11, .T. ) ;
#154 = CARTESIAN_POINT ( 'NONE',  ( 0.0000000000000000000, 3.198598838310107600, 0.0000000000000000000 ) ) ;
#155 = EDGE_LOOP ( 'NONE', ( #247, #266 ) ) ;
#156 = DIRECTION ( 'NONE',  ( 0.0000000000000000000, 0.0000000000000000000, -1.000000000000000000 ) ) ;
#157 = FACE_OUTER_BOUND ( 'NONE', #97, .T. ) ;
#158 = ORIENTED_EDGE ( 'NONE', *, *, #256, .F. ) ;
#159 = PRODUCT_DEFINITION_CONTEXT ( 'detailed design', #93, 'design' ) ;
#160 = FILL_AREA_STYLE_COLOUR ( '', #265 ) ;
#161 = PRODUCT_CONTEXT ( 'NONE', #248, 'mechanical' ) ;
#162 = EDGE_CURVE ( 'NONE', #193, #286, #284, .T. ) ;
#163 = AXIS2_PLACEMENT_3D ( 'NONE', #9, #217, #169 ) ;
#164 = LINE ( 'NONE', #222, #228 ) ;
#165 = CARTESIAN_POINT ( 'NONE',  ( 0.0000000000000000000, -2.276824562219559300E-015, 0.0000000000000000000 ) ) ;
#166 = ORIENTED_EDGE ( 'NONE', *, *, #137, .T. ) ;
#167 = ADVANCED_FACE ( 'NONE', ( #237 ), #176, .T. ) ;
#168 = AXIS2_PLACEMENT_3D ( 'NONE', #246, #128, #85 ) ;
#169 = DIRECTION ( 'NONE',  ( 0.0000000000000000000, 0.0000000000000000000, -1.000000000000000000 ) ) ;
#170 = EDGE_LOOP ( 'NONE', ( #61, #106, #115, #17 ) ) ;
#171 = DIRECTION ( 'NONE',  ( 0.0000000000000000000, -1.000000000000000000, 0.0000000000000000000 ) ) ;
#172 = DIRECTION ( 'NONE',  ( 0.0000000000000000000, 0.0000000000000000000, -1.000000000000000000 ) ) ;
#173 = PRODUCT_DEFINITION ( 'UNKNOWN', '', #74, #159 ) ;
#174 = COLOUR_RGB ( '',0.7921568627450980000, 0.8196078431372548800, 0.9333333333333333500 ) ;
#175 = CARTESIAN_POINT ( 'NONE',  ( 0.0000000000000000000, 0.2999999999999947200, 0.0000000000000000000 ) ) ;
#176 = TOROIDAL_SURFACE ( 'NONE', #163, 36.49999999999999300, 1.000000000000000000 ) ;
#177 = EDGE_CURVE ( 'NONE', #279, #233, #293, .T. ) ;
#178 = PLANE ( 'NONE',  #120 ) ;
#179 =( LENGTH_UNIT ( ) NAMED_UNIT ( * ) SI_UNIT ( .MILLI., .METRE. ) );
#180 = CARTESIAN_POINT ( 'NONE',  ( 4.592425496802573600E-015, 2.232673012021041200, -37.49999999999999300 ) ) ;
#181 = ORIENTED_EDGE ( 'NONE', *, *, #256, .T. ) ;
#182 = DIRECTION ( 'NONE',  ( 0.0000000000000000000, 0.0000000000000000000, -1.000000000000000000 ) ) ;
#183 = AXIS2_PLACEMENT_3D ( 'NONE', #212, #1, #47 ) ;
#184 = CIRCLE ( 'NONE', #82, 37.49999999999999300 ) ;
#185 = DIRECTION ( 'NONE',  ( -1.224646799147359100E-016, 0.0000000000000000000, -1.000000000000000000 ) ) ;
#186 = UNCERTAINTY_MEASURE_WITH_UNIT (LENGTH_MEASURE( 1.000000000000000100E-005 ), #179, 'distance_accuracy_value', 'NONE');
#187 = DIRECTION ( 'NONE',  ( 0.0000000000000000000, -0.2588190451025217900, -0.9659258262890679800 ) ) ;
#188 = ORIENTED_EDGE ( 'NONE', *, *, #14, .F. ) ;
#189 = DIRECTION ( 'NONE',  ( -0.0000000000000000000, 1.000000000000000000, -0.0000000000000000000 ) ) ;
#190 = ADVANCED_FACE ( 'NONE', ( #287 ), #105, .T. ) ;
#191 = FILL_AREA_STYLE_COLOUR ( '', #174 ) ;
#192 = DIRECTION ( 'NONE',  ( -0.0000000000000000000, 1.000000000000000000, -0.0000000000000000000 ) ) ;
#193 = VERTEX_POINT ( 'NONE', #231 ) ;
#194 = PRESENTATION_LAYER_ASSIGNMENT (  '', '', ( #49 ) ) ;
#195 = CARTESIAN_POINT ( 'NONE',  ( 0.0000000000000000000, 2.232673012021041200, 0.0000000000000000000 ) ) ;
#196 = AXIS2_PLACEMENT_3D ( 'NONE', #83, #122, #107 ) ;
#197 = EDGE_CURVE ( 'NONE', #48, #279, #164, .T. ) ;
#198 = CARTESIAN_POINT ( 'NONE',  ( 0.0000000000000000000, 55.25579619824175400, 37.49999999999999300 ) ) ;
#199 = DIRECTION ( 'NONE',  ( 0.0000000000000000000, 0.0000000000000000000, -1.000000000000000000 ) ) ;
#200 = LINE ( 'NONE', #4, #27 ) ;
#201 = SURFACE_SIDE_STYLE ('',( #218 ) ) ;
#202 =( NAMED_UNIT ( * ) PLANE_ANGLE_UNIT ( ) SI_UNIT ( $, .RADIAN. ) );
#203 = PRESENTATION_LAYER_ASSIGNMENT (  '', '', ( #113 ) ) ;
#204 = CLOSED_SHELL ( 'NONE', ( #140, #280, #190, #258, #51, #240, #78, #95, #167, #28 ) ) ;
#205 = DIRECTION ( 'NONE',  ( 0.0000000000000000000, 0.0000000000000000000, 1.000000000000000000 ) ) ;
#206 = CIRCLE ( 'NONE', #232, 36.75881904510250600 ) ;
#207 = CARTESIAN_POINT ( 'NONE',  ( 0.0000000000000000000, 3.198598838310107600, -36.75881904510250600 ) ) ;
#208 = EDGE_LOOP ( 'NONE', ( #158, #79, #88, #238 ) ) ;
#209 = EDGE_CURVE ( 'NONE', #193, #45, #81, .T. ) ;
#210 = EDGE_CURVE ( 'NONE', #2, #233, #59, .T. ) ;
#211 = ORIENTED_EDGE ( 'NONE', *, *, #139, .T. ) ;
#212 = CARTESIAN_POINT ( 'NONE',  ( 0.0000000000000000000, 5.400000000000002100, 0.0000000000000000000 ) ) ;
#213 = TOROIDAL_SURFACE ( 'NONE', #119, 37.19999999999998900, 0.2999999999999999900 ) ;
#214 = AXIS2_PLACEMENT_3D ( 'NONE', #254, #87, #205 ) ;
#215 = CYLINDRICAL_SURFACE ( 'NONE', #236, 37.49999999999999300 ) ;
#216 = LINE ( 'NONE', #198, #100 ) ;
#217 = DIRECTION ( 'NONE',  ( 0.0000000000000000000, -1.000000000000000000, 0.0000000000000000000 ) ) ;
#218 = SURFACE_STYLE_FILL_AREA ( #62 ) ;
#219 = CIRCLE ( 'NONE', #94, 1.000000000000000900 ) ;
#220 = ORIENTED_EDGE ( 'NONE', *, *, #177, .T. ) ;
#221 = CARTESIAN_POINT ( 'NONE',  ( 0.0000000000000000000, 0.2999999999999947200, 0.0000000000000000000 ) ) ;
#222 = CARTESIAN_POINT ( 'NONE',  ( 0.0000000000000000000, 5.400000000000002100, -28.54307806183470200 ) ) ;
#223 = AXIS2_PLACEMENT_3D ( 'NONE', #154, #19, #227 ) ;
#224 = CARTESIAN_POINT ( 'NONE',  ( 0.0000000000000000000, 2.232673012021041200, 37.49999999999999300 ) ) ;
#225 = AXIS2_PLACEMENT_3D ( 'NONE', #252, #116, #185 ) ;
#226 = DIRECTION ( 'NONE',  ( 0.0000000000000000000, -1.000000000000000000, 0.0000000000000000000 ) ) ;
#227 = DIRECTION ( 'NONE',  ( 0.0000000000000000000, 0.0000000000000000000, 1.000000000000000000 ) ) ;
#228 = VECTOR ( 'NONE', #187, 1000.000000000000000 ) ;
#229 = ORIENTED_EDGE ( 'NONE', *, *, #76, .F. ) ;
#230 = DIRECTION ( 'NONE',  ( 0.0000000000000000000, 0.0000000000000000000, 1.000000000000000000 ) ) ;
#231 = CARTESIAN_POINT ( 'NONE',  ( 0.0000000000000000000, 0.2999999999999947200, 37.49999999999999300 ) ) ;
#232 = AXIS2_PLACEMENT_3D ( 'NONE', #283, #124, #261 ) ;
#233 = VERTEX_POINT ( 'NONE', #70 ) ;
#234 = SHAPE_DEFINITION_REPRESENTATION ( #289, #69 ) ;
#235 = EDGE_LOOP ( 'NONE', ( #135, #229, #111, #242 ) ) ;
#236 = AXIS2_PLACEMENT_3D ( 'NONE', #91, #294, #114 ) ;
#237 = FACE_OUTER_BOUND ( 'NONE', #208, .T. ) ;
#238 = ORIENTED_EDGE ( 'NONE', *, *, #272, .F. ) ;
#239 = DIRECTION ( 'NONE',  ( 0.0000000000000000000, 0.0000000000000000000, -1.000000000000000000 ) ) ;
#240 = ADVANCED_FACE ( 'NONE', ( #26 ), #96, .T. ) ;
#241 = DIRECTION ( 'NONE',  ( 0.0000000000000000000, 0.0000000000000000000, 1.000000000000000000 ) ) ;
#242 = ORIENTED_EDGE ( 'NONE', *, *, #142, .F. ) ;
#243 = AXIS2_PLACEMENT_3D ( 'NONE', #30, #171, #7 ) ;
#244 = CARTESIAN_POINT ( 'NONE',  ( 4.574055794815362400E-015, -2.276824562219559300E-015, 37.19999999999998900 ) ) ;
#245 = AXIS2_PLACEMENT_3D ( 'NONE', #52, #192, #29 ) ;
#246 = CARTESIAN_POINT ( 'NONE',  ( 0.0000000000000000000, 5.400000000000002100, 0.0000000000000000000 ) ) ;
#247 = ORIENTED_EDGE ( 'NONE', *, *, #282, .T. ) ;
#248 = APPLICATION_CONTEXT ( 'automotive_design' ) ;
#249 = ORIENTED_EDGE ( 'NONE', *, *, #14, .T. ) ;
#250 = FACE_OUTER_BOUND ( 'NONE', #155, .T. ) ;
#251 = DIRECTION ( 'NONE',  ( -1.224646799147349500E-016, 0.0000000000000000000, -1.000000000000000000 ) ) ;
#252 = CARTESIAN_POINT ( 'NONE',  ( 4.555686092828152700E-015, 0.2999999999999947200, 37.19999999999998900 ) ) ;
#253 = ORIENTED_EDGE ( 'NONE', *, *, #197, .F. ) ;
#254 = CARTESIAN_POINT ( 'NONE',  ( 0.0000000000000000000, 5.400000000000002100, 0.0000000000000000000 ) ) ;
#255 = MECHANICAL_DESIGN_GEOMETRIC_PRESENTATION_REPRESENTATION (  '', ( #49 ), #65 ) ;
#256 = EDGE_CURVE ( 'NONE', #233, #291, #219, .T. ) ;
#257 = CARTESIAN_POINT ( 'NONE',  ( 0.0000000000000000000, 5.400000000000002100, -28.54307806183470200 ) ) ;
#258 = ADVANCED_FACE ( 'NONE', ( #75 ), #215, .T. ) ;
#259 = CIRCLE ( 'NONE', #103, 0.3000000000000016500 ) ;
#260 = CARTESIAN_POINT ( 'NONE',  ( 0.0000000000000000000, 2.232673012021041200, -36.49999999999999300 ) ) ;
#261 = DIRECTION ( 'NONE',  ( 0.0000000000000000000, 0.0000000000000000000, 1.000000000000000000 ) ) ;
#262 = DIRECTION ( 'NONE',  ( 0.0000000000000000000, 0.0000000000000000000, 1.000000000000000000 ) ) ;
#263 = CIRCLE ( 'NONE', #126, 37.49999999999999300 ) ;
#264 = AXIS2_PLACEMENT_3D ( 'NONE', #54, #143, #99 ) ;
#265 = COLOUR_RGB ( '',0.7921568627450980000, 0.8196078431372548800, 0.9333333333333333500 ) ;
#266 = ORIENTED_EDGE ( 'NONE', *, *, #290, .T. ) ;
#267 = DIRECTION ( 'NONE',  ( 0.0000000000000000000, 0.0000000000000000000, 1.000000000000000000 ) ) ;
#268 = APPLICATION_PROTOCOL_DEFINITION ( 'draft international standard', 'automotive_design', 1998, #248 ) ;
#269 = DIRECTION ( 'NONE',  ( 0.0000000000000000000, 0.0000000000000000000, -1.000000000000000000 ) ) ;
#270 = CARTESIAN_POINT ( 'NONE',  ( 4.469960816887837600E-015, 2.232673012021041200, 36.49999999999999300 ) ) ;
#271 = CIRCLE ( 'NONE', #131, 37.49999999999999300 ) ;
#272 = EDGE_CURVE ( 'NONE', #291, #73, #271, .T. ) ;
#273 = DIRECTION ( 'NONE',  ( -0.0000000000000000000, 1.000000000000000000, -0.0000000000000000000 ) ) ;
#274 = ORIENTED_EDGE ( 'NONE', *, *, #76, .T. ) ;
#275 = DIRECTION ( 'NONE',  ( 1.000000000000000000, 0.0000000000000000000, 0.0000000000000000000 ) ) ;
#276 = AXIS2_PLACEMENT_3D ( 'NONE', #136, #267, #275 ) ;
#277 = ORIENTED_EDGE ( 'NONE', *, *, #6, .F. ) ;
#278 = CIRCLE ( 'NONE', #214, 28.54307806183470200 ) ;
#279 = VERTEX_POINT ( 'NONE', #207 ) ;
#280 = ADVANCED_FACE ( 'NONE', ( #157 ), #33, .T. ) ;
#281 = CARTESIAN_POINT ( 'NONE',  ( 3.998587963513022200E-015, 5.400000000000002100, 28.54307806183470200 ) ) ;
#282 = EDGE_CURVE ( 'NONE', #48, #2, #147, .T. ) ;
#283 = CARTESIAN_POINT ( 'NONE',  ( 0.0000000000000000000, 3.198598838310107600, 0.0000000000000000000 ) ) ;
#284 = CIRCLE ( 'NONE', #245, 37.49999999999999300 ) ;
#285 = CARTESIAN_POINT ( 'NONE',  ( -28.54307806183470200, 5.399999999999999500, 0.0000000000000000000 ) ) ;
#286 = VERTEX_POINT ( 'NONE', #66 ) ;
#287 = FACE_OUTER_BOUND ( 'NONE', #40, .T. ) ;
#288 = EDGE_LOOP ( 'NONE', ( #277, #274, #249, #50 ) ) ;
#289 = PRODUCT_DEFINITION_SHAPE ( 'NONE', 'NONE',  #173 ) ;
#290 = EDGE_CURVE ( 'NONE', #2, #48, #278, .T. ) ;
#291 = VERTEX_POINT ( 'NONE', #224 ) ;
#292 = DIRECTION ( 'NONE',  ( 0.0000000000000000000, -1.000000000000000000, 0.0000000000000000000 ) ) ;
#293 = CIRCLE ( 'NONE', #223, 36.75881904510250600 ) ;
#294 = DIRECTION ( 'NONE',  ( -0.0000000000000000000, 1.000000000000000000, -0.0000000000000000000 ) ) ;
ENDSEC;
END-ISO-10303-21;
