ISO-10303-21;
HEADER;
FILE_DESCRIPTION (( 'STEP AP214' ),
    '1' );
FILE_NAME ('Hositrad_KF40-44WS.STEP',
    '2013-10-17T07:21:53',
    ( '' ),
    ( '' ),
    'SwSTEP 2.0',
    'SolidWorks 2013',
    '' );
FILE_SCHEMA (( 'AUTOMOTIVE_DESIGN' ));
ENDSEC;

DATA;
#1 = PRODUCT_CONTEXT ( 'NONE', #228, 'mechanical' ) ;
#2 = VERTEX_POINT ( 'NONE', #205 ) ;
#3 = AXIS2_PLACEMENT_3D ( 'NONE', #211, #270, #72 ) ;
#4 = ADVANCED_FACE ( 'NONE', ( #67 ), #66, .T. ) ;
#5 = ORIENTED_EDGE ( 'NONE', *, *, #126, .F. ) ;
#6 = DIRECTION ( 'NONE',  ( 0.0000000000000000000, 0.0000000000000000000, -1.000000000000000000 ) ) ;
#7 = PRODUCT_DEFINITION_SHAPE ( 'NONE', 'NONE',  #160 ) ;
#8 = EDGE_CURVE ( 'NONE', #315, #44, #288, .T. ) ;
#9 = ORIENTED_EDGE ( 'NONE', *, *, #141, .T. ) ;
#10 = CARTESIAN_POINT ( 'NONE',  ( 0.0000000000000000000, 0.0000000000000000000, 0.0000000000000000000 ) ) ;
#11 = DIRECTION ( 'NONE',  ( -0.0000000000000000000, -1.000000000000000000, -0.0000000000000000000 ) ) ;
#12 = COLOUR_RGB ( '',0.6470588235294118000, 0.6196078431372549200, 0.5882352941176470800 ) ;
#13 = EDGE_CURVE ( 'NONE', #140, #90, #363, .T. ) ;
#14 = CARTESIAN_POINT ( 'NONE',  ( 0.0000000000000000000, 3.499999999999999600, -20.60000000000000100 ) ) ;
#15 = CARTESIAN_POINT ( 'NONE',  ( 0.0000000000000000000, -3.469446951953614200E-015, 0.0000000000000000000 ) ) ;
#16 = FACE_OUTER_BOUND ( 'NONE', #321, .T. ) ;
#17 = ORIENTED_EDGE ( 'NONE', *, *, #204, .F. ) ;
#18 = DIRECTION ( 'NONE',  ( -0.0000000000000000000, -1.000000000000000000, -0.0000000000000000000 ) ) ;
#19 = PLANE ( 'NONE',  #37 ) ;
#20 = AXIS2_PLACEMENT_3D ( 'NONE', #47, #152, #357 ) ;
#21 = FACE_OUTER_BOUND ( 'NONE', #285, .T. ) ;
#22 = DIRECTION ( 'NONE',  ( -0.0000000000000000000, -1.000000000000000000, -0.0000000000000000000 ) ) ;
#23 = ORIENTED_EDGE ( 'NONE', *, *, #34, .F. ) ;
#24 = SURFACE_STYLE_USAGE ( .BOTH. , #189 ) ;
#25 = CARTESIAN_POINT ( 'NONE',  ( 0.0000000000000000000, 3.198598838310105800, 0.0000000000000000000 ) ) ;
#26 = LINE ( 'NONE', #161, #41 ) ;
#27 = DIRECTION ( 'NONE',  ( -0.0000000000000000000, -1.000000000000000000, -0.0000000000000000000 ) ) ;
#28 = FACE_OUTER_BOUND ( 'NONE', #214, .T. ) ;
#29 = EDGE_CURVE ( 'NONE', #44, #315, #212, .T. ) ;
#30 = EDGE_LOOP ( 'NONE', ( #365, #354, #234, #218 ) ) ;
#31 = APPLICATION_PROTOCOL_DEFINITION ( 'draft international standard', 'automotive_design', 1998, #197 ) ;
#32 = ORIENTED_EDGE ( 'NONE', *, *, #356, .F. ) ;
#33 = STYLED_ITEM ( 'NONE', ( #302 ), #191 ) ;
#34 = EDGE_CURVE ( 'NONE', #117, #247, #58, .T. ) ;
#35 = CONICAL_SURFACE ( 'NONE', #196, 22.35000000000000100, 1.308996938995750500 ) ;
#36 = ORIENTED_EDGE ( 'NONE', *, *, #281, .T. ) ;
#37 = AXIS2_PLACEMENT_3D ( 'NONE', #185, #48, #249 ) ;
#38 = DIRECTION ( 'NONE',  ( 0.0000000000000000000, 0.0000000000000000000, -1.000000000000000000 ) ) ;
#39 = ORIENTED_EDGE ( 'NONE', *, *, #107, .T. ) ;
#40 = CARTESIAN_POINT ( 'NONE',  ( 0.0000000000000000000, -16.46881115347746800, 0.0000000000000000000 ) ) ;
#41 = VECTOR ( 'NONE', #192, 1000.000000000000000 ) ;
#42 = TOROIDAL_SURFACE ( 'NONE', #3, 26.50000000000000000, 1.000000000000000400 ) ;
#43 = DIRECTION ( 'NONE',  ( 1.182917971378670800E-016, -0.2588190451025175200, 0.9659258262890692000 ) ) ;
#44 = VERTEX_POINT ( 'NONE', #348 ) ;
#45 = DIRECTION ( 'NONE',  ( 0.0000000000000000000, 0.0000000000000000000, -1.000000000000000000 ) ) ;
#46 = EDGE_CURVE ( 'NONE', #90, #140, #353, .T. ) ;
#47 = CARTESIAN_POINT ( 'NONE',  ( 0.0000000000000000000, 3.499999999999996000, 0.0000000000000000000 ) ) ;
#48 = DIRECTION ( 'NONE',  ( 0.0000000000000000000, -1.000000000000000000, -0.0000000000000000000 ) ) ;
#49 = EDGE_LOOP ( 'NONE', ( #339, #292 ) ) ;
#50 = PRESENTATION_LAYER_ASSIGNMENT (  '', '', ( #33 ) ) ;
#51 =( NAMED_UNIT ( * ) PLANE_ANGLE_UNIT ( ) SI_UNIT ( $, .RADIAN. ) );
#52 = EDGE_CURVE ( 'NONE', #178, #44, #280, .T. ) ;
#53 = DIRECTION ( 'NONE',  ( 0.0000000000000000000, 0.0000000000000000000, -1.000000000000000000 ) ) ;
#54 = VECTOR ( 'NONE', #237, 1000.000000000000000 ) ;
#55 = FILL_AREA_STYLE ('',( #163 ) ) ;
#56 = ORIENTED_EDGE ( 'NONE', *, *, #300, .T. ) ;
#57 = ADVANCED_FACE ( 'NONE', ( #203 ), #273, .T. ) ;
#58 = CIRCLE ( 'NONE', #153, 22.35000000000000100 ) ;
#59 = DIRECTION ( 'NONE',  ( -0.0000000000000000000, -1.000000000000000000, -0.0000000000000000000 ) ) ;
#60 = EDGE_CURVE ( 'NONE', #85, #111, #193, .T. ) ;
#61 = EDGE_LOOP ( 'NONE', ( #56, #96, #224, #267 ) ) ;
#62 = CARTESIAN_POINT ( 'NONE',  ( 0.0000000000000000000, 2.232673012021034100, 0.0000000000000000000 ) ) ;
#63 = DIRECTION ( 'NONE',  ( 0.0000000000000000000, -0.2588190451025175200, -0.9659258262890692000 ) ) ;
#64 = MECHANICAL_DESIGN_GEOMETRIC_PRESENTATION_REPRESENTATION (  '', ( #33 ), #84 ) ;
#65 = CARTESIAN_POINT ( 'NONE',  ( 0.0000000000000000000, -16.46881115347746800, 0.0000000000000000000 ) ) ;
#66 = TOROIDAL_SURFACE ( 'NONE', #101, 26.50000000000000000, 1.000000000000000400 ) ;
#67 = FACE_OUTER_BOUND ( 'NONE', #154, .T. ) ;
#68 = DIRECTION ( 'NONE',  ( -0.0000000000000000000, -1.000000000000000000, -0.0000000000000000000 ) ) ;
#69 = EDGE_CURVE ( 'NONE', #247, #277, #133, .T. ) ;
#70 = DIRECTION ( 'NONE',  ( -0.0000000000000000000, -1.000000000000000000, -0.0000000000000000000 ) ) ;
#71 = EDGE_LOOP ( 'NONE', ( #175, #295, #351, #100 ) ) ;
#72 = DIRECTION ( 'NONE',  ( 0.0000000000000000000, 0.0000000000000000000, -1.000000000000000000 ) ) ;
#73 = AXIS2_PLACEMENT_3D ( 'NONE', #188, #22, #220 ) ;
#74 = DIRECTION ( 'NONE',  ( -0.0000000000000000000, -1.000000000000000000, -0.0000000000000000000 ) ) ;
#75 = ORIENTED_EDGE ( 'NONE', *, *, #300, .F. ) ;
#76 = DIRECTION ( 'NONE',  ( -0.0000000000000000000, -1.000000000000000000, -0.0000000000000000000 ) ) ;
#77 = CARTESIAN_POINT ( 'NONE',  ( 0.0000000000000000000, 0.0000000000000000000, 0.0000000000000000000 ) ) ;
#78 = AXIS2_PLACEMENT_3D ( 'NONE', #15, #59, #6 ) ;
#79 = SURFACE_STYLE_USAGE ( .BOTH. , #260 ) ;
#80 = CIRCLE ( 'NONE', #20, 22.35000000000000100 ) ;
#81 = ORIENTED_EDGE ( 'NONE', *, *, #107, .F. ) ;
#82 = COLOUR_RGB ( '',0.6470588235294118000, 0.6196078431372549200, 0.5882352941176470800 ) ;
#83 = CYLINDRICAL_SURFACE ( 'NONE', #186, 27.50000000000000000 ) ;
#84 =( GEOMETRIC_REPRESENTATION_CONTEXT ( 3 ) GLOBAL_UNCERTAINTY_ASSIGNED_CONTEXT ( ( #298 ) ) GLOBAL_UNIT_ASSIGNED_CONTEXT ( ( #283, #112, #310 ) ) REPRESENTATION_CONTEXT ( 'NONE', 'WORKASPACE' ) );
#85 = VERTEX_POINT ( 'NONE', #14 ) ;
#86 = ADVANCED_FACE ( 'NONE', ( #338 ), #35, .T. ) ;
#87 = EDGE_CURVE ( 'NONE', #358, #178, #182, .T. ) ;
#88 = CARTESIAN_POINT ( 'NONE',  ( 2.737085596094334700E-015, 3.499999999999996000, 22.35000000000000100 ) ) ;
#89 = LINE ( 'NONE', #248, #239 ) ;
#90 = VERTEX_POINT ( 'NONE', #243 ) ;
#91 = CARTESIAN_POINT ( 'NONE',  ( 0.0000000000000000000, 0.0000000000000000000, 0.0000000000000000000 ) ) ;
#92 = PRODUCT ( 'Hositrad_KF40-44WS', 'Hositrad_KF40-44WS', '', ( #1 ) ) ;
#93 = AXIS2_PLACEMENT_3D ( 'NONE', #216, #322, #118 ) ;
#94 = LINE ( 'NONE', #290, #250 ) ;
#95 = EDGE_LOOP ( 'NONE', ( #128, #171 ) ) ;
#96 = ORIENTED_EDGE ( 'NONE', *, *, #266, .T. ) ;
#97 = CARTESIAN_POINT ( 'NONE',  ( 0.0000000000000000000, 3.499999999999996000, -22.35000000000000100 ) ) ;
#98 = DIRECTION ( 'NONE',  ( -0.0000000000000000000, -1.000000000000000000, -0.0000000000000000000 ) ) ;
#99 = VECTOR ( 'NONE', #98, 1000.000000000000000 ) ;
#100 = ORIENTED_EDGE ( 'NONE', *, *, #226, .F. ) ;
#101 = AXIS2_PLACEMENT_3D ( 'NONE', #62, #232, #318 ) ;
#102 = CARTESIAN_POINT ( 'NONE',  ( 2.522772406243547400E-015, -16.46881115347746800, 20.60000000000000100 ) ) ;
#103 = CARTESIAN_POINT ( 'NONE',  ( 3.245314017740485800E-015, 2.232673012021034100, 26.50000000000000000 ) ) ;
#104 = ORIENTED_EDGE ( 'NONE', *, *, #181, .F. ) ;
#105 = CARTESIAN_POINT ( 'NONE',  ( 0.0000000000000000000, 4.379938341020260100, 0.0000000000000000000 ) ) ;
#106 = FACE_OUTER_BOUND ( 'NONE', #71, .T. ) ;
#107 = EDGE_CURVE ( 'NONE', #117, #2, #125, .T. ) ;
#108 = CARTESIAN_POINT ( 'NONE',  ( 0.0000000000000000000, 2.232673012021027400, -27.50000000000000000 ) ) ;
#109 = CIRCLE ( 'NONE', #291, 1.000000000000000900 ) ;
#110 = DIRECTION ( 'NONE',  ( -0.0000000000000000000, -1.000000000000000000, -0.0000000000000000000 ) ) ;
#111 = VERTEX_POINT ( 'NONE', #149 ) ;
#112 =( NAMED_UNIT ( * ) PLANE_ANGLE_UNIT ( ) SI_UNIT ( $, .RADIAN. ) );
#113 = AXIS2_PLACEMENT_3D ( 'NONE', #103, #303, #131 ) ;
#114 = ORIENTED_EDGE ( 'NONE', *, *, #141, .F. ) ;
#115 = ADVANCED_FACE ( 'NONE', ( #347 ), #174, .F. ) ;
#116 = VECTOR ( 'NONE', #63, 1000.000000000000000 ) ;
#117 = VERTEX_POINT ( 'NONE', #146 ) ;
#118 = DIRECTION ( 'NONE',  ( 0.0000000000000000000, -0.0000000000000000000, 1.000000000000000000 ) ) ;
#119 = AXIS2_PLACEMENT_3D ( 'NONE', #91, #293, #121 ) ;
#120 = CARTESIAN_POINT ( 'NONE',  ( 0.0000000000000000000, 4.379938341020260100, 0.0000000000000000000 ) ) ;
#121 = DIRECTION ( 'NONE',  ( 0.0000000000000000000, 0.0000000000000000000, -1.000000000000000000 ) ) ;
#122 = ORIENTED_EDGE ( 'NONE', *, *, #60, .T. ) ;
#123 = CARTESIAN_POINT ( 'NONE',  ( 0.0000000000000000000, 4.379938341020260100, -22.35000000000000100 ) ) ;
#124 = CIRCLE ( 'NONE', #325, 27.50000000000000000 ) ;
#125 = LINE ( 'NONE', #328, #265 ) ;
#126 = EDGE_CURVE ( 'NONE', #117, #262, #258, .T. ) ;
#127 = CARTESIAN_POINT ( 'NONE',  ( 0.0000000000000000000, 2.232673012021027400, 0.0000000000000000000 ) ) ;
#128 = ORIENTED_EDGE ( 'NONE', *, *, #46, .F. ) ;
#129 = CARTESIAN_POINT ( 'NONE',  ( 0.0000000000000000000, 4.379938341020260100, -22.35000000000000100 ) ) ;
#130 = AXIS2_PLACEMENT_3D ( 'NONE', #359, #184, #156 ) ;
#131 = DIRECTION ( 'NONE',  ( -1.224646799147353500E-016, 0.0000000000000000000, -1.000000000000000000 ) ) ;
#132 = CARTESIAN_POINT ( 'NONE',  ( 0.0000000000000000000, 3.198598838310105800, 0.0000000000000000000 ) ) ;
#133 = LINE ( 'NONE', #123, #116 ) ;
#134 =( LENGTH_UNIT ( ) NAMED_UNIT ( * ) SI_UNIT ( .MILLI., .METRE. ) );
#135 = AXIS2_PLACEMENT_3D ( 'NONE', #323, #143, #350 ) ;
#136 = ORIENTED_EDGE ( 'NONE', *, *, #356, .T. ) ;
#137 = ADVANCED_FACE ( 'NONE', ( #28 ), #245, .F. ) ;
#138 = AXIS2_PLACEMENT_3D ( 'NONE', #77, #343, #168 ) ;
#139 = VERTEX_POINT ( 'NONE', #97 ) ;
#140 = VERTEX_POINT ( 'NONE', #148 ) ;
#141 = EDGE_CURVE ( 'NONE', #247, #117, #166, .T. ) ;
#142 = ORIENTED_EDGE ( 'NONE', *, *, #126, .T. ) ;
#143 = DIRECTION ( 'NONE',  ( -0.0000000000000000000, -1.000000000000000000, -0.0000000000000000000 ) ) ;
#144 = STYLED_ITEM ( 'NONE', ( #284 ), #314 ) ;
#145 = DIRECTION ( 'NONE',  ( -0.0000000000000000000, -1.000000000000000000, -0.0000000000000000000 ) ) ;
#146 = CARTESIAN_POINT ( 'NONE',  ( 2.737085596094334700E-015, 4.379938341020260100, 22.35000000000000100 ) ) ;
#147 = ORIENTED_EDGE ( 'NONE', *, *, #60, .F. ) ;
#148 = CARTESIAN_POINT ( 'NONE',  ( 2.522772406243547400E-015, 0.0000000000000000000, 20.60000000000000100 ) ) ;
#149 = CARTESIAN_POINT ( 'NONE',  ( 2.522772406243547400E-015, 3.499999999999999600, 20.60000000000000100 ) ) ;
#150 = DIRECTION ( 'NONE',  ( 0.0000000000000000000, 0.0000000000000000000, -1.000000000000000000 ) ) ;
#151 = FACE_BOUND ( 'NONE', #326, .T. ) ;
#152 = DIRECTION ( 'NONE',  ( -0.0000000000000000000, -1.000000000000000000, -0.0000000000000000000 ) ) ;
#153 = AXIS2_PLACEMENT_3D ( 'NONE', #120, #208, #38 ) ;
#154 = EDGE_LOOP ( 'NONE', ( #199, #158, #207, #32 ) ) ;
#155 = DIRECTION ( 'NONE',  ( -1.000000000000000000, 0.0000000000000000000, 0.0000000000000000000 ) ) ;
#156 = DIRECTION ( 'NONE',  ( 0.0000000000000000000, 0.0000000000000000000, -1.000000000000000000 ) ) ;
#157 = CIRCLE ( 'NONE', #113, 1.000000000000000900 ) ;
#158 = ORIENTED_EDGE ( 'NONE', *, *, #319, .T. ) ;
#159 = DIRECTION ( 'NONE',  ( 0.0000000000000000000, 0.0000000000000000000, -1.000000000000000000 ) ) ;
#160 = PRODUCT_DEFINITION ( 'UNKNOWN', '', #179, #164 ) ;
#161 = CARTESIAN_POINT ( 'NONE',  ( 0.0000000000000000000, -16.46881115347746800, -27.50000000000000000 ) ) ;
#162 = EDGE_CURVE ( 'NONE', #277, #358, #109, .T. ) ;
#163 = FILL_AREA_STYLE_COLOUR ( '', #82 ) ;
#164 = PRODUCT_DEFINITION_CONTEXT ( 'detailed design', #197, 'design' ) ;
#165 =( NAMED_UNIT ( * ) SI_UNIT ( $, .STERADIAN. ) SOLID_ANGLE_UNIT ( ) );
#166 = CIRCLE ( 'NONE', #275, 22.35000000000000100 ) ;
#167 = ORIENTED_EDGE ( 'NONE', *, *, #319, .F. ) ;
#168 = DIRECTION ( 'NONE',  ( 1.000000000000000000, 0.0000000000000000000, 0.0000000000000000000 ) ) ;
#169 = AXIS2_PLACEMENT_3D ( 'NONE', #132, #336, #159 ) ;
#170 = FACE_OUTER_BOUND ( 'NONE', #240, .T. ) ;
#171 = ORIENTED_EDGE ( 'NONE', *, *, #13, .F. ) ;
#172 = ORIENTED_EDGE ( 'NONE', *, *, #281, .F. ) ;
#173 = ADVANCED_FACE ( 'NONE', ( #320 ), #42, .T. ) ;
#174 = CYLINDRICAL_SURFACE ( 'NONE', #312, 22.35000000000000100 ) ;
#175 = ORIENTED_EDGE ( 'NONE', *, *, #364, .F. ) ;
#176 = AXIS2_PLACEMENT_3D ( 'NONE', #10, #11, #210 ) ;
#177 = CARTESIAN_POINT ( 'NONE',  ( 3.367778697655221300E-015, -16.46881115347746800, 27.50000000000000000 ) ) ;
#178 = VERTEX_POINT ( 'NONE', #332 ) ;
#179 = PRODUCT_DEFINITION_FORMATION_WITH_SPECIFIED_SOURCE ( 'ANY', '', #92, .NOT_KNOWN. ) ;
#180 = DIRECTION ( 'NONE',  ( -0.0000000000000000000, -1.000000000000000000, -0.0000000000000000000 ) ) ;
#181 = EDGE_CURVE ( 'NONE', #111, #140, #309, .T. ) ;
#182 = CIRCLE ( 'NONE', #261, 27.50000000000000000 ) ;
#183 = EDGE_LOOP ( 'NONE', ( #9, #39, #75, #289 ) ) ;
#184 = DIRECTION ( 'NONE',  ( -0.0000000000000000000, -1.000000000000000000, -0.0000000000000000000 ) ) ;
#185 = CARTESIAN_POINT ( 'NONE',  ( 0.0000000000000000000, 3.499999999999998700, 22.35000000000000100 ) ) ;
#186 = AXIS2_PLACEMENT_3D ( 'NONE', #360, #74, #335 ) ;
#187 = ORIENTED_EDGE ( 'NONE', *, *, #46, .T. ) ;
#188 = CARTESIAN_POINT ( 'NONE',  ( 0.0000000000000000000, 3.499999999999996000, 0.0000000000000000000 ) ) ;
#189 = SURFACE_SIDE_STYLE ('',( #313 ) ) ;
#190 = CONICAL_SURFACE ( 'NONE', #269, 22.35000000000000100, 1.308996938995750500 ) ;
#191 = ADVANCED_BREP_SHAPE_REPRESENTATION ( 'Hositrad_KF40-44WS', ( #314, #138 ), #361 ) ;
#192 = DIRECTION ( 'NONE',  ( -0.0000000000000000000, -1.000000000000000000, -0.0000000000000000000 ) ) ;
#193 = CIRCLE ( 'NONE', #217, 20.60000000000000100 ) ;
#194 = CARTESIAN_POINT ( 'NONE',  ( 0.0000000000000000000, 2.232673012021027400, 0.0000000000000000000 ) ) ;
#195 = APPLICATION_PROTOCOL_DEFINITION ( 'draft international standard', 'automotive_design', 1998, #228 ) ;
#196 = AXIS2_PLACEMENT_3D ( 'NONE', #246, #180, #294 ) ;
#197 = APPLICATION_CONTEXT ( 'automotive_design' ) ;
#198 = FACE_OUTER_BOUND ( 'NONE', #49, .T. ) ;
#199 = ORIENTED_EDGE ( 'NONE', *, *, #266, .F. ) ;
#200 = ADVANCED_FACE ( 'NONE', ( #16, #151 ), #19, .F. ) ;
#201 = PRODUCT_RELATED_PRODUCT_CATEGORY ( 'part', '', ( #92 ) ) ;
#202 = CYLINDRICAL_SURFACE ( 'NONE', #345, 20.60000000000000100 ) ;
#203 = FACE_OUTER_BOUND ( 'NONE', #30, .T. ) ;
#204 = EDGE_CURVE ( 'NONE', #262, #139, #80, .T. ) ;
#205 = CARTESIAN_POINT ( 'NONE',  ( 3.277010209254802100E-015, 3.198598838310105800, 26.75881904510250900 ) ) ;
#206 = CYLINDRICAL_SURFACE ( 'NONE', #130, 22.35000000000000100 ) ;
#207 = ORIENTED_EDGE ( 'NONE', *, *, #162, .T. ) ;
#208 = DIRECTION ( 'NONE',  ( -0.0000000000000000000, -1.000000000000000000, -0.0000000000000000000 ) ) ;
#209 = PRESENTATION_LAYER_ASSIGNMENT (  '', '', ( #144 ) ) ;
#210 = DIRECTION ( 'NONE',  ( 0.0000000000000000000, 0.0000000000000000000, -1.000000000000000000 ) ) ;
#211 = CARTESIAN_POINT ( 'NONE',  ( 0.0000000000000000000, 2.232673012021034100, 0.0000000000000000000 ) ) ;
#212 = CIRCLE ( 'NONE', #135, 27.50000000000000000 ) ;
#213 = DIRECTION ( 'NONE',  ( 0.0000000000000000000, 0.0000000000000000000, -1.000000000000000000 ) ) ;
#214 = EDGE_LOOP ( 'NONE', ( #104, #147, #301, #187 ) ) ;
#215 = DIRECTION ( 'NONE',  ( -0.0000000000000000000, -1.000000000000000000, -0.0000000000000000000 ) ) ;
#216 = CARTESIAN_POINT ( 'NONE',  ( 0.0000000000000000000, -1.683889348827610500E-015, 20.60000000000000100 ) ) ;
#217 = AXIS2_PLACEMENT_3D ( 'NONE', #324, #215, #45 ) ;
#218 = ORIENTED_EDGE ( 'NONE', *, *, #341, .F. ) ;
#219 = CARTESIAN_POINT ( 'NONE',  ( 0.0000000000000000000, 3.198598838310105800, -26.75881904510250900 ) ) ;
#220 = DIRECTION ( 'NONE',  ( 0.0000000000000000000, 0.0000000000000000000, -1.000000000000000000 ) ) ;
#221 = UNCERTAINTY_MEASURE_WITH_UNIT (LENGTH_MEASURE( 1.000000000000000100E-005 ), #222, 'distance_accuracy_value', 'NONE');
#222 =( LENGTH_UNIT ( ) NAMED_UNIT ( * ) SI_UNIT ( .MILLI., .METRE. ) );
#223 = ORIENTED_EDGE ( 'NONE', *, *, #52, .F. ) ;
#224 = ORIENTED_EDGE ( 'NONE', *, *, #87, .F. ) ;
#225 = DIRECTION ( 'NONE',  ( -0.0000000000000000000, -1.000000000000000000, -0.0000000000000000000 ) ) ;
#226 = EDGE_CURVE ( 'NONE', #85, #90, #89, .T. ) ;
#227 = DIRECTION ( 'NONE',  ( 0.0000000000000000000, 0.0000000000000000000, -1.000000000000000000 ) ) ;
#228 = APPLICATION_CONTEXT ( 'automotive_design' ) ;
#229 = ORIENTED_EDGE ( 'NONE', *, *, #244, .T. ) ;
#230 = MECHANICAL_DESIGN_GEOMETRIC_PRESENTATION_REPRESENTATION (  '', ( #144 ), #251 ) ;
#231 = ADVANCED_FACE ( 'NONE', ( #329, #198 ), #349, .F. ) ;
#232 = DIRECTION ( 'NONE',  ( -0.0000000000000000000, -1.000000000000000000, -0.0000000000000000000 ) ) ;
#233 = VECTOR ( 'NONE', #296, 1000.000000000000000 ) ;
#234 = ORIENTED_EDGE ( 'NONE', *, *, #8, .F. ) ;
#235 = DIRECTION ( 'NONE',  ( 0.0000000000000000000, 0.0000000000000000000, -1.000000000000000000 ) ) ;
#236 = AXIS2_PLACEMENT_3D ( 'NONE', #40, #145, #235 ) ;
#237 = DIRECTION ( 'NONE',  ( -0.0000000000000000000, -1.000000000000000000, -0.0000000000000000000 ) ) ;
#238 = CIRCLE ( 'NONE', #73, 22.35000000000000100 ) ;
#239 = VECTOR ( 'NONE', #18, 1000.000000000000000 ) ;
#240 = EDGE_LOOP ( 'NONE', ( #223, #136, #316, #344 ) ) ;
#241 = CARTESIAN_POINT ( 'NONE',  ( 0.0000000000000000000, 2.232673012021034100, -26.50000000000000000 ) ) ;
#242 = CARTESIAN_POINT ( 'NONE',  ( 0.0000000000000000000, 4.379938341020260100, 0.0000000000000000000 ) ) ;
#243 = CARTESIAN_POINT ( 'NONE',  ( 0.0000000000000000000, 0.0000000000000000000, -20.60000000000000100 ) ) ;
#244 = EDGE_CURVE ( 'NONE', #247, #139, #94, .T. ) ;
#245 = CYLINDRICAL_SURFACE ( 'NONE', #333, 20.60000000000000100 ) ;
#246 = CARTESIAN_POINT ( 'NONE',  ( 0.0000000000000000000, 4.379938341020260100, 0.0000000000000000000 ) ) ;
#247 = VERTEX_POINT ( 'NONE', #129 ) ;
#248 = CARTESIAN_POINT ( 'NONE',  ( 0.0000000000000000000, -16.46881115347746800, -20.60000000000000100 ) ) ;
#249 = DIRECTION ( 'NONE',  ( 0.0000000000000000000, 0.0000000000000000000, -1.000000000000000000 ) ) ;
#250 = VECTOR ( 'NONE', #70, 1000.000000000000000 ) ;
#251 =( GEOMETRIC_REPRESENTATION_CONTEXT ( 3 ) GLOBAL_UNCERTAINTY_ASSIGNED_CONTEXT ( ( #221 ) ) GLOBAL_UNIT_ASSIGNED_CONTEXT ( ( #222, #51, #255 ) ) REPRESENTATION_CONTEXT ( 'NONE', 'WORKASPACE' ) );
#252 = EDGE_LOOP ( 'NONE', ( #81, #268, #327, #167 ) ) ;
#253 = DIRECTION ( 'NONE',  ( -0.0000000000000000000, -1.000000000000000000, -0.0000000000000000000 ) ) ;
#254 = ORIENTED_EDGE ( 'NONE', *, *, #364, .T. ) ;
#255 =( NAMED_UNIT ( * ) SI_UNIT ( $, .STERADIAN. ) SOLID_ANGLE_UNIT ( ) );
#256 = CARTESIAN_POINT ( 'NONE',  ( 0.0000000000000000000, -16.46881115347746800, 0.0000000000000000000 ) ) ;
#257 = FACE_OUTER_BOUND ( 'NONE', #252, .T. ) ;
#258 = LINE ( 'NONE', #299, #99 ) ;
#259 = ORIENTED_EDGE ( 'NONE', *, *, #244, .F. ) ;
#260 = SURFACE_SIDE_STYLE ('',( #340 ) ) ;
#261 = AXIS2_PLACEMENT_3D ( 'NONE', #127, #330, #150 ) ;
#262 = VERTEX_POINT ( 'NONE', #88 ) ;
#263 = ADVANCED_FACE ( 'NONE', ( #21 ), #206, .F. ) ;
#264 = CIRCLE ( 'NONE', #304, 20.60000000000000100 ) ;
#265 = VECTOR ( 'NONE', #43, 1000.000000000000000 ) ;
#266 = EDGE_CURVE ( 'NONE', #2, #178, #157, .T. ) ;
#267 = ORIENTED_EDGE ( 'NONE', *, *, #162, .F. ) ;
#268 = ORIENTED_EDGE ( 'NONE', *, *, #34, .T. ) ;
#269 = AXIS2_PLACEMENT_3D ( 'NONE', #105, #253, #279 ) ;
#270 = DIRECTION ( 'NONE',  ( -0.0000000000000000000, -1.000000000000000000, -0.0000000000000000000 ) ) ;
#271 = CIRCLE ( 'NONE', #286, 26.75881904510251300 ) ;
#272 = DIRECTION ( 'NONE',  ( 0.0000000000000000000, 0.0000000000000000000, -1.000000000000000000 ) ) ;
#273 = CYLINDRICAL_SURFACE ( 'NONE', #236, 27.50000000000000000 ) ;
#274 = CARTESIAN_POINT ( 'NONE',  ( 0.0000000000000000000, -16.46881115347746800, 0.0000000000000000000 ) ) ;
#275 = AXIS2_PLACEMENT_3D ( 'NONE', #242, #68, #272 ) ;
#276 = DIRECTION ( 'NONE',  ( 0.0000000000000000000, 0.0000000000000000000, 1.000000000000000000 ) ) ;
#277 = VERTEX_POINT ( 'NONE', #219 ) ;
#278 = FILL_AREA_STYLE_COLOUR ( '', #12 ) ;
#279 = DIRECTION ( 'NONE',  ( 0.0000000000000000000, 0.0000000000000000000, -1.000000000000000000 ) ) ;
#280 = LINE ( 'NONE', #177, #54 ) ;
#281 = EDGE_CURVE ( 'NONE', #139, #262, #238, .T. ) ;
#282 = CARTESIAN_POINT ( 'NONE',  ( 0.0000000000000000000, 3.499999999999999600, 0.0000000000000000000 ) ) ;
#283 =( LENGTH_UNIT ( ) NAMED_UNIT ( * ) SI_UNIT ( .MILLI., .METRE. ) );
#284 = PRESENTATION_STYLE_ASSIGNMENT (( #24 ) ) ;
#285 = EDGE_LOOP ( 'NONE', ( #5, #114, #229, #36 ) ) ;
#286 = AXIS2_PLACEMENT_3D ( 'NONE', #25, #225, #53 ) ;
#287 = ADVANCED_FACE ( 'NONE', ( #170 ), #83, .T. ) ;
#288 = CIRCLE ( 'NONE', #78, 27.50000000000000000 ) ;
#289 = ORIENTED_EDGE ( 'NONE', *, *, #69, .F. ) ;
#290 = CARTESIAN_POINT ( 'NONE',  ( 0.0000000000000000000, -16.46881115347746800, -22.35000000000000100 ) ) ;
#291 = AXIS2_PLACEMENT_3D ( 'NONE', #241, #155, #276 ) ;
#292 = ORIENTED_EDGE ( 'NONE', *, *, #29, .T. ) ;
#293 = DIRECTION ( 'NONE',  ( -0.0000000000000000000, -1.000000000000000000, -0.0000000000000000000 ) ) ;
#294 = DIRECTION ( 'NONE',  ( 0.0000000000000000000, 0.0000000000000000000, -1.000000000000000000 ) ) ;
#295 = ORIENTED_EDGE ( 'NONE', *, *, #181, .T. ) ;
#296 = DIRECTION ( 'NONE',  ( -0.0000000000000000000, -1.000000000000000000, -0.0000000000000000000 ) ) ;
#297 = DIRECTION ( 'NONE',  ( 0.0000000000000000000, 0.0000000000000000000, -1.000000000000000000 ) ) ;
#298 = UNCERTAINTY_MEASURE_WITH_UNIT (LENGTH_MEASURE( 1.000000000000000100E-005 ), #283, 'distance_accuracy_value', 'NONE');
#299 = CARTESIAN_POINT ( 'NONE',  ( 2.737085596094334700E-015, -16.46881115347746800, 22.35000000000000100 ) ) ;
#300 = EDGE_CURVE ( 'NONE', #277, #2, #305, .T. ) ;
#301 = ORIENTED_EDGE ( 'NONE', *, *, #226, .T. ) ;
#302 = PRESENTATION_STYLE_ASSIGNMENT (( #79 ) ) ;
#303 = DIRECTION ( 'NONE',  ( 1.000000000000000000, 0.0000000000000000000, -1.224646799147353200E-016 ) ) ;
#304 = AXIS2_PLACEMENT_3D ( 'NONE', #282, #110, #308 ) ;
#305 = CIRCLE ( 'NONE', #169, 26.75881904510251300 ) ;
#306 = CARTESIAN_POINT ( 'NONE',  ( 0.0000000000000000000, -3.469446951953614200E-015, -27.50000000000000000 ) ) ;
#307 = DIRECTION ( 'NONE',  ( 0.0000000000000000000, 0.0000000000000000000, -1.000000000000000000 ) ) ;
#308 = DIRECTION ( 'NONE',  ( 0.0000000000000000000, 0.0000000000000000000, -1.000000000000000000 ) ) ;
#309 = LINE ( 'NONE', #102, #233 ) ;
#310 =( NAMED_UNIT ( * ) SI_UNIT ( $, .STERADIAN. ) SOLID_ANGLE_UNIT ( ) );
#311 = ORIENTED_EDGE ( 'NONE', *, *, #204, .T. ) ;
#312 = AXIS2_PLACEMENT_3D ( 'NONE', #274, #355, #297 ) ;
#313 = SURFACE_STYLE_FILL_AREA ( #362 ) ;
#314 = MANIFOLD_SOLID_BREP ( 'Revolve1', #331 ) ;
#315 = VERTEX_POINT ( 'NONE', #306 ) ;
#316 = ORIENTED_EDGE ( 'NONE', *, *, #341, .T. ) ;
#317 = ADVANCED_FACE ( 'NONE', ( #257 ), #190, .T. ) ;
#318 = DIRECTION ( 'NONE',  ( 0.0000000000000000000, 0.0000000000000000000, -1.000000000000000000 ) ) ;
#319 = EDGE_CURVE ( 'NONE', #2, #277, #271, .T. ) ;
#320 = FACE_OUTER_BOUND ( 'NONE', #61, .T. ) ;
#321 = EDGE_LOOP ( 'NONE', ( #172, #17 ) ) ;
#322 = DIRECTION ( 'NONE',  ( 0.0000000000000000000, 1.000000000000000000, 0.0000000000000000000 ) ) ;
#323 = CARTESIAN_POINT ( 'NONE',  ( 0.0000000000000000000, -3.469446951953614200E-015, 0.0000000000000000000 ) ) ;
#324 = CARTESIAN_POINT ( 'NONE',  ( 0.0000000000000000000, 3.499999999999999600, 0.0000000000000000000 ) ) ;
#325 = AXIS2_PLACEMENT_3D ( 'NONE', #194, #27, #227 ) ;
#326 = EDGE_LOOP ( 'NONE', ( #122, #254 ) ) ;
#327 = ORIENTED_EDGE ( 'NONE', *, *, #69, .T. ) ;
#328 = CARTESIAN_POINT ( 'NONE',  ( 2.737085596094334700E-015, 4.379938341020260100, 22.35000000000000100 ) ) ;
#329 = FACE_BOUND ( 'NONE', #95, .T. ) ;
#330 = DIRECTION ( 'NONE',  ( -0.0000000000000000000, -1.000000000000000000, -0.0000000000000000000 ) ) ;
#331 = CLOSED_SHELL ( 'NONE', ( #346, #57, #173, #86, #115, #263, #317, #4, #287, #231, #137, #200 ) ) ;
#332 = CARTESIAN_POINT ( 'NONE',  ( 3.367778697655221300E-015, 2.232673012021027400, 27.50000000000000000 ) ) ;
#333 = AXIS2_PLACEMENT_3D ( 'NONE', #65, #352, #213 ) ;
#334 = EDGE_LOOP ( 'NONE', ( #23, #142, #311, #259 ) ) ;
#335 = DIRECTION ( 'NONE',  ( 0.0000000000000000000, 0.0000000000000000000, -1.000000000000000000 ) ) ;
#336 = DIRECTION ( 'NONE',  ( -0.0000000000000000000, -1.000000000000000000, -0.0000000000000000000 ) ) ;
#337 = SHAPE_DEFINITION_REPRESENTATION ( #7, #191 ) ;
#338 = FACE_OUTER_BOUND ( 'NONE', #183, .T. ) ;
#339 = ORIENTED_EDGE ( 'NONE', *, *, #8, .T. ) ;
#340 = SURFACE_STYLE_FILL_AREA ( #55 ) ;
#341 = EDGE_CURVE ( 'NONE', #358, #315, #26, .T. ) ;
#342 =( NAMED_UNIT ( * ) PLANE_ANGLE_UNIT ( ) SI_UNIT ( $, .RADIAN. ) );
#343 = DIRECTION ( 'NONE',  ( 0.0000000000000000000, 0.0000000000000000000, 1.000000000000000000 ) ) ;
#344 = ORIENTED_EDGE ( 'NONE', *, *, #29, .F. ) ;
#345 = AXIS2_PLACEMENT_3D ( 'NONE', #256, #76, #307 ) ;
#346 = ADVANCED_FACE ( 'NONE', ( #106 ), #202, .F. ) ;
#347 = FACE_OUTER_BOUND ( 'NONE', #334, .T. ) ;
#348 = CARTESIAN_POINT ( 'NONE',  ( 3.367778697655221300E-015, -3.469446951953614200E-015, 27.50000000000000000 ) ) ;
#349 = PLANE ( 'NONE',  #93 ) ;
#350 = DIRECTION ( 'NONE',  ( 0.0000000000000000000, 0.0000000000000000000, -1.000000000000000000 ) ) ;
#351 = ORIENTED_EDGE ( 'NONE', *, *, #13, .T. ) ;
#352 = DIRECTION ( 'NONE',  ( -0.0000000000000000000, -1.000000000000000000, -0.0000000000000000000 ) ) ;
#353 = CIRCLE ( 'NONE', #176, 20.60000000000000100 ) ;
#354 = ORIENTED_EDGE ( 'NONE', *, *, #52, .T. ) ;
#355 = DIRECTION ( 'NONE',  ( -0.0000000000000000000, -1.000000000000000000, -0.0000000000000000000 ) ) ;
#356 = EDGE_CURVE ( 'NONE', #178, #358, #124, .T. ) ;
#357 = DIRECTION ( 'NONE',  ( 0.0000000000000000000, 0.0000000000000000000, -1.000000000000000000 ) ) ;
#358 = VERTEX_POINT ( 'NONE', #108 ) ;
#359 = CARTESIAN_POINT ( 'NONE',  ( 0.0000000000000000000, -16.46881115347746800, 0.0000000000000000000 ) ) ;
#360 = CARTESIAN_POINT ( 'NONE',  ( 0.0000000000000000000, -16.46881115347746800, 0.0000000000000000000 ) ) ;
#361 =( GEOMETRIC_REPRESENTATION_CONTEXT ( 3 ) GLOBAL_UNCERTAINTY_ASSIGNED_CONTEXT ( ( #366 ) ) GLOBAL_UNIT_ASSIGNED_CONTEXT ( ( #134, #342, #165 ) ) REPRESENTATION_CONTEXT ( 'NONE', 'WORKASPACE' ) );
#362 = FILL_AREA_STYLE ('',( #278 ) ) ;
#363 = CIRCLE ( 'NONE', #119, 20.60000000000000100 ) ;
#364 = EDGE_CURVE ( 'NONE', #111, #85, #264, .T. ) ;
#365 = ORIENTED_EDGE ( 'NONE', *, *, #87, .T. ) ;
#366 = UNCERTAINTY_MEASURE_WITH_UNIT (LENGTH_MEASURE( 1.000000000000000100E-005 ), #134, 'distance_accuracy_value', 'NONE');
ENDSEC;
END-ISO-10303-21;
